Oops, an error
Loading. Please wait.

Love Come And Save Me tab

version 5
version 5

Whole song

433 views 3 this week
no commentswrite comment
1 2 3 4 5
x 3
add to favorites
×
Save as Personal and add changes to this tab that will be seen only by you. Learn more ›
×
You can save this tab as Personal to edit and correct it or add notes. All changes will be seen only by you. Learn more »
launch autoscroll
font size
0
reset
how to read this tab
guitar tuner
edit
Autoscroll
slow
fast
+/-
esc
set tempo
stop
Tabbed By Jennifer Robertson Oct 7. 2015

I tabbed this by ear so if anything is not quite right, sorry about it I spent
days listening to the same track over and over again so this is the best I can
do. Enjoy.
=====================================================
= RIGHT AWAY GREAT CAPTAIN - LOVE, COME AND SAVE ME =
=====================================================

CAPO on 7 - Chords Relative to Capo.
Intro
[0:00-0:08]
    Dm                 F                 C                   G
e---------1--------------------------------------------------------------------|
B-------------3------------1----------1---1-----1---------1---0------0-------0-|
G-----2----------------2-------2-0h2--------0-------0-----------0--------0-----|
D---0---0---0---0----3---3---3----------------2---2---0h2---------0--------0---|
A----------------------------------------3-------------------------------------|
E------------------------------------------------------------3---------3-------|

1 [0:08-0:17] - Verse: 2 [0:17-0:25]
    Dm                 F                  C                 G   
e---------1-------------------------------------------------------------------|
B-------------3--------------1-------1-----1-----1------0----0------0-------0-|
G-----2-----------2------2-------2-----------0-------0---------0--------0-----|
D---0---0---0---0------3---3---3---3-----------2---2---2---------0--------0---|
A-----------------------------------------3-----------------------------------| X2
E-----------------------------------------------------------3---------3-------|
2nd Time:
[Well I was packing bags like a bat out of hell and you were slipping on your dress.]

[0:25-0:33]
    Dm                 F                   C                 G  
e---------1------------------0------------------------------------------------|
B-------------3------------------1-----1----1-----1-------0----0------0-------|
G-----2-----------2------2---------0h2--------0-------0----------0--------0---|
D---0---0---0---0------3---3---3----------------2---2--------------0--------0-|
A------------------------------------------3------------3---------------------|
E-------------------------------------------------------------3---------3-----|
[Well I was punchin' holes in a ticket to downtown, that's where the spirit fled]

[0:33-0:42]
    Dm                 F                   C                  G 
e---------1------------------0--------------------------------------------------|
B-------------3----------1-------1---1------1-----1-------0----0------0-------0-|
G-----2-----------2----------------2----------0-------0----------0--------0-----|
D---0---0---0---0------3---3---3----------------2---2--------------0--------0---|
A------------------------------------------3------------3-----------------------|
E-------------------------------------------------------------3---------3-------|
  [Away from my body and away from my blood like a fire we never lit]

[0:42-0:50]
    Dm                 F                  C                  G  
e---------1--------------------------------------------------------------------|
B-------------3--------------1-------1-----1-----1-------0----0------0-------0-|
G-----2-----------2------2-------2-----------0-------0----------0--------0-----|
D---0---0---0---0------3---3---3---3-----------2---2--------------0--------0---|
A-----------------------------------------3------------3-----------------------|
E------------------------------------------------------------3---------3-------|
[Have you ever seen a man so broken as that one man you were looking at?]

[0:50-1:00]
    Dm                 F                   C                 G
e---------1------------------------------------------------------|
B-------------3--------------1----------1---1-----1------1----0~-|
G-----2-----------2------2-------2-0h2--------0-------0----------|
D---0---0---0---0------3---3---3----------------2---2------------|
A------------------------------------------3------------3--------|
E-----------------------------------------------------------3----|
   [Noooooo, no]

[1:00-1:07]
    Dm                 F                   C                  G 
e---------1------------------0--------------------------------------------------|
B-------------3----------1-------1---1------1-----1-------0----0------0-------0-|
G-----2-----------2----------------2----------0-------0----------0--------0-----|
D---0---0---0---0------3---3---3----------------2---2--------------0--------0---|
A------------------------------------------3------------3-----------------------|
E-------------------------------------------------------------3---------3-------|
[If I can try again if you wanted me to I swear I'd be a better man]

[1:07-1:16]
    Dm                 F                  C                  G  
e---------1--------------------------------------------------------------------|
B-------------3--------------1-------1-----1-----1-------0----0------0-------0-|
G-----2-----------2------2-------2-----------0-------0----------0--------0-----|
D---0---0---0---0------3---3---3---3-----------2---2---2----------0--------0---|
A-----------------------------------------3------------------------------------|
E------------------------------------------------------------3---------3-------|
[If roses and daisies won't do the trick I'll create another perfect plan]

[1:16-1:24]
    Dm                 F                   C                     G      
e---------1------------------0-----------------------------------------------------|
B-------------3------------------1---1------1-----1---------0-----0------0-------0-|
G-----2-----------2------2---------2----------0-------0-------------0--------0-----|
D---0---0---0---0------3---3---3----------------2-------0h2-----------0--------0---|
A------------------------------------------3--------3------------------------------|
E----------------------------------------------------------------3---------3-------|
[Cause I swear to the heavens I'll forget all the past just say that you need me again]

[1:24-1:32]
    Dm                 F                  C                  G  
e---------1-------------------------------------------------------------------|
B-------------3--------------1-------1-----1-----1-------0---------0----------|
G-----2-----------2------2-------2-----------0-------0---------0--------0-----|
D---0---0---0---0------3---3---3---3-----------2---2---2---------0--------0---|
A-----------------------------------------3-----------------------------------|
E------------------------------------------------------------3--------3-------|
[Have you ever seen a man so broken as that one man that you won't write back?]

[1:33-1:41]
    Dm                 F                  C              Am7       
e---------1-----------------------------------------------------------------|
B-------------3--------------1-------1-----1-----1-------1-------1-------0--|
G-----2-----------2------2-------2-----------0-------0-------0-------0------|
D---0---0---0---0------3---3---3---3-----------2-------2-------2-------2----|
A-----------------------------------------3--------3-------0-------0--------|
E---------------------------------------------------------------------------|
[Ohhhh, I just need you my river.]

[1:41-1:49]
    Dm                 F                   C                    G       
e---------1------------------0--------------------0-------------------------------|
B-------------3------------------1---1------1--------------0-----0------0-------0-|
G-----2-----------2------2---------2----------0-------0------------0--------0-----|
D---0---0---0---0------3---3---3----------------2-------0------------0--------0---|
A------------------------------------------3--------3-----------------------------|
E---------------------------------------------------------------3---------3-------|
[I just need you my love.]

[1:49-1:57]
    Dm                 F                  C                Am
e---------1-------------------------------------------------------------------|
B-------------3--------------1-------1-----1-----1-------1-------1---------1--|
G-----2-----------2------2-------2-----------0-------0-------2-------2-0h2----|
D---0---0---0---0------3---3---3---3-----------2-------2-------2--------------|
A-----------------------------------------3--------3-------0-------0----------|
E-----------------------------------------------------------------------------|
[Ohhhhhh, OhhhHHHhh]

[1:57-2:06]
    Dm                 F                   C              G
e---------1------------------0---------------------------------|
B-------------3------------------1--------1-----1------0-------|
G-----2-----------2------2---------2p0------0-------0----------|
D---0---0---0---0------3---3---3--------------2---2---2--------|
A----------------------------------------3---------------------|
E---------------------------------------------------------3~---|
[Ohhhhhh, OhhhHHHhh]

[2:06-2:15]
  Dm                   F                   C                 G
e---------1------------------------------------------------------------------------|
B-------------3--------------1----------1---1-----1---------------0------0-------0-|
G-----2-----------2------2-------2-0h2--------0---------0-----------0--------0-----|
D---0---0---0---0------3---3---3----------------2---0h2---0h2---------0--------0---|
A------------------------------------------3---------------------------------------|
E----------------------------------------------------------------3---------3-------|
[You were looking east with the heaviest heart that I can ever recall seein']

[2:15-2:23]
    Dm                 F                   C                  G 
e---------1------------------0--------------------------------------------------|
B-------------3----------1-------1---1------1-----1-------0----0------0-------0-|
G-----2-----------2----------------2----------0-------0----------0--------0-----|
D---0---0---0---0------3---3---3----------------2---2--------------0--------0---|
A------------------------------------------3------------3-----------------------|
E-------------------------------------------------------------3---------3-------|
[Time is not the answer you want but time is what you're gonna get]     [Have you...]

[2:23-2:31]
    Dm                 F                   C                  G 
e---------1------------------0--------------------------------------------------|
B-------------3------------------1-----1----1-----1-------0----0------0-------0-|
G-----2-----------2------2---------0h2--------0-------0----------0--------0-----|
D---0---0---0---0------3---3---3----------------2---2--------------0--------0---|
A------------------------------------------3------------3-----------------------|
E-------------------------------------------------------------3---------3-------|
[...ever seen a man burn brighter with love than the man that you were looking at]

[2:31-2:40]
    Dm                 F                  C                Am7 
e---------1------------------0------------------0--------------------------|
B-------------3----------1-------1---1----1---------1---1---1-----1------0-|
G-----2-----------2--------2-------2--------0-----------------0------0-----|
D---0---0---0---0------3-------3--------------2-------2---------2------2---|
A----------------------------------------3--------3--------0-------0-------|
E--------------------------------------------------------------------------|
[The answer is no... no... the answer is no]

[2:40-2:48]
    Dm                 F                 C               G      
e---------1------------------0------------------0-----------------3-------|
B-------------3------------------1---1----1---------1-------0---------0---|
G-----2-----------2------2---------2--------0-----------0-----0-----------|
D---0---0---0---0------3---3---3--------------2-------0---------0---0---0-|
A----------------------------------------3--------3-----------------------|
E---------------------------------------------------------3---------------|
[No, no, no... it's no]

[2:49-2:57]
    Dm                 F                  C                   G
e---------1------------------------------------------------------------------|
B-------------3----------1-----1-----1-----1-----1---------1---0-----0-------|
G-----2-----------2--------0h2---0h2---------0-------0-----------0------0----|
D---0---0---0---0------3---------------3-------2---2---0h2---------0------0--|
A-----------------------------------------3----------------------------------|
E-------------------------------------------------------------3-------3------|
[Love, love come and save me, from the drowning]

[2:57-3:05]
    Dm                 F                 C                 G    
e---------1-------------------------------0---------------------------------|
B-------------3-----0--------0h1------------1---1-------1---0-----0-------0-|
G-----2---------0h2------2-------2---2--------------0---------0-------0-----|
D---0---0---0----------3---3-------3----------2---2-------------0-------0---|
A----------------------------------------3------------3---------------------|
E----------------------------------------------------------3--------3-------|
[Love, love go and save him, from the drowning]

[3:05-3:15]
    Dm                 F                 C                   G
e---------1-----------------------------------------------------|
B-------------3------------1----------1---1-----1-------0----0~-|
G-----2----------------2-------2-0h2--------0-------0-----------|
D---0---0---0---0----3---3---3----------------2---2-------------|
A----------------------------------------3------------3---------|
E------------------------------------------------------------3~-|

            
            
Suggest correction
Creating personal tab
Creating personal tab
You can edit any tab online and save it as your Personal.

You can edit, replace or remove any tab part or add personal notes – all changes will be seen only by you.

Personal tabs can be accessed anytime from any device, even offline.
Learn more »
Give kudos to tab author, rate the tab!
1 2 3 4 5
comments
print report bad tab
guest
You may want to rate the tab now too:
select rating
Wanna post a correction for this tab? Suggest correction