Oops, an error
Loading. Please wait.
4,356 views 3 this week
1 commentread comment
1 2 3 4 5
x 3
add to favorites
launch autoscroll
font size
0
reset
how to read this tab
guitar tuner
×
Best way to learn
"Sacred Heart"
Autoscroll
slow
fast
+/-
esc
set tempo
stop
this is from andy hulls acoustic side project right away great captain.
its basically the same as the original version of this song performed by andy hull a few 
earlier.
its just higher and with different vocals

okay
capo at 8

intro/verse
e|-----------------------------------|
b|-----------------------------------|
g|--------0-------0-------0-------0--|
d|----3-------3-------3-------3------|
a|--3---3---3---3---3---3---3---3----|
e|-----------------------------------|

e|-----------------------------------|
b|-----------------------------------|
g|--------0-------0-------0-------0--|
d|----2-------2-------2-------2------|
a|--3---3---3---3---3---3---3---3----|
e|-----------------------------------|

chorus
e|-----------------------------------|
b|-----------------------------------|
g|--------0-------0-------0-------0--|
d|----2-------2-------2-------2------|
a|--0---0---0---0---0---0---0---0----|
e|-----------------------------------|

e|-----------------------------------|
b|-----------------------------------|
g|--------0-------0-------0-------0--|
d|----2-------2-------2-------2------|
a|-----------------------------------|
e|--3---3---3---3---0---0---3---3----|

end on this
e|-----|
b|--1--|
g|--0--|
d|--3--|
a|--3--|
e|-----|

and you just repeat what is needed.

anywho
enjoy.

(feedback is appreciated)
Suggest correction
Give kudos to tab author, rate the tab!
1 2 3 4 5
comments
print report bad tab
1 comment total.
0 reply
saltydalty123 31 Mar 30, 2011 11:28 AM

hey man, great tab! only thing i found was that the chorus part should be this:


e|-----------------------------------|
b|-----------------------------------|
g|--------0-------0-------0-------0--|
d|----2-------2-------2-------2------|
a|-----------------------------------|
e|--5---5---5---5---5---5---5---5----|

e|-----------------------------------|
b|-----------------------------------|
g|--------0-------0-------0-------0--|
d|----2-------2-------2-------2------|
a|-----------------------------------|
e|--3---3---3---3---0---0---3---3----|

guest
You may want to rate the tab now too:
select rating
Wanna post a correction for this tab? Suggest correction