Oops, an error
Loading. Please wait.

California King Bed Tab

version 2
version 2
50,835 views 33 this week
no commentswrite comment
1 2 3 4 5
x 4
add to favorites
launch autoscroll
font size
0
reset
how to read this tab
guitar tuner
Autoscroll
slow
fast
+/-
esc
set tempo
stop
Help us to improve Ultimate-Guitar.com Take our survey!
×
Author
Tuning: Standard - Low to High (EADGBe)

[Solo 1]
e|-/7---3--------/7--5--3--5--7--5--3--2--3------2h3p2p0--------------|
B|---------3--0------------------------------------------3-1-0-1-3-1-0|
G|--------------------------------------------------------------------|
D|--------------------------------------------------------------------|
A|--------------------------------------------------------------------|
E|--------------------------------------------------------------------|

e|---------------------/7---3--------/7--5--3--2--3-------/5--3--/7--5|
B|1-3-1------------------------3--0--------------------3--------------|
G|--------------------------------------------------------------------|
D|--------------------------------------------------------------------|
A|--------------------------------------------------------------------|
E|--------------------------------------------------------------------|

[Solo 2]
E|{20}-21-20-21-20----/22-------------22r*b*<22>-22-19-17h19p17s15----|
B|--------------------------------------------------------------------|
G|--------------------------------------------------------------------|
D|--------------------------------------------------------------------|
A|--------------------------------------------------------------------|
E|--------------------------------------------------------------------|

E|-------------------------14-15-14-12--------------------------------|
B|---17-15-17(v~v~v~)------------------15-12-15b*-15r*----------------|
G|----------------------------------------------------14(v~)r*-12(v~)-|
D|--------------------------------------------------------------------|
A|--------------------------------------------------------------------|
E|--------------------------------------------------------------------|

E|---------------15r*15r*15r*<17r*><17r*><17r*><17r*>(12)<15b~*>-<17>-|
B|----------15-17-----------------------------------------------------|
G|-----12/14b*--------------------------------------------------------|
D|12/14---------------------------------------------------------------|
A|--------------------------------------------------------------------|
E|--------------------------------------------------------------------|

E|14-15-14-------14-15-14---------------------------------------------|
B|---------15-12----------15-12-15b*15r*-12---------------------------|
G|------------------------------------------14-12---------------------|
D|------------------------------------------------14-12-14(v~)--------|
A|--------------------------------------------------------------------|
E|--------------------------------------------------------------------|

E|22/------{20}-21-20-21-20-------------------------------------------|
B|--------------------------------------------------------------------|
G|--------------------------------------------------------------------|
D|--------------------------------------------------------------------|
A|--------------------------------------------------------------------|
E|--------------------------------------------------------------------|


************************************

| h  Hammer-on
| p  Pull-off
| /  Slide up

************************************
Suggest correction
comments
print report bad tab
guest
You may want to rate the tab now too:
select rating
Wanna post a correction for this tab? Suggest correction