Oops, an error
Loading. Please wait.

Only Girl In The World Tab

version 1
version 1

Whole song

Interactive

26,962 views 15 this week
no commentswrite comment
1 2 3 4 5
excellent!
x 3
add to favorites
launch autoscroll
font size
0
reset
how to read this tab
guitar tuner
Autoscroll
slow
fast
+/-
esc
set tempo
stop
Help us to improve Ultimate-Guitar.com Take our survey!
×
Author
Difficulty
intermediate
Intro/verse
e|---------------------------|
B|---------------------3-2---|
G|-------2-----2--2-4--------|
D|--4-4-----4----------------|
A|---------------------------|
E|---------------------------|

When the verse starts the bass starts playing

Check the bass tab here on ultimate-guitar, it's not great but it works :P

Chorus:

e|--------------------------9---10----9---10--9---14--14-!
B|---12---10--12--10--12----10--12----10--12--10--15--15-!
G|---12---11--12--11--12---------------------------------!    X3
D|-------------------------------------------------------!
A|-------------------------------------------------------!            
E|-------------------------------------------------------!               
Play this two 
Em    F#m    G                                                               sections twice
e|-------------------9-----7---9---10---------------------|   
B|---12-10-12-10-12--10----8---10--12---------------------|
G|---12-11-12-11-12--------9---11--12---------------------|
D|-------------------------9---9---12---------------------|
A|-------------------------7---9---10---------------------|
E|--------------------------------------------------------|

Bridge:
The Bass starts playing this

G|-------------------|
D|-------------------|
A|--5-5-7-7-2-2-2-2--|
E|-------------------|

Then a synth start playing like this

e|--10-10--12-12--14-14-14-14---10-10--12-12--9-9-9-9----|
B|--10-10--10-10--15-15-15-15---10-10--12-12--9-9-9-9----|
G|-------------------------------------------------------|
D|-------------------------------------------------------|
A|-------------------------------------------------------|
E|-------------------------------------------------------|

e|--14-12-15-14--10-10-10-10--10--9--12-10--9------------|
B|--15-12-15-15--10-10-10-10--10--10-12-10--9------------|
G|-------------------------------------------------------|
D|-------------------------------------------------------|
A|-------------------------------------------------------|
E|-------------------------------------------------------|
Suggest correction
What's this?
You can suggest a correction to this tab. Community and Mods will review your correction and vote to approve or reject it.
comments
We did not receive enough feedback on this tab! Please rate:
print report bad tab
1 2 3 4 5
guest
You may want to rate the tab now too:
select rating
Please do not post tabs as comments. Select "correction" instead!