Oops, an error
Loading. Please wait.

Only Girl In The World Tab

version 2
version 2

Whole song

Interactive

3,830 views 1 this week
no commentswrite comment
1 2 3 4 5
please rate
add to favorites
launch autoscroll
font size
0
reset
how to read this tab
guitar tuner
Tab Pro tools
  • play this tab
  • loop segment
  • change instrument
  • show fretboard
  • metronome
×
Best way to learn
"Only Girl In The World"
Autoscroll
slow
fast
+/-
esc
set tempo
stop
Contributor
Difficulty
intermediate
------------------------------------------------------------------------
			     Only Girl In The World - Rihanna
------------------------------------------------------------------------
Tabbed by: Death_Leopard
Email: death_leopard8@yahoo.com

Tuning: Standard
Intro				
e|---------------------|-------------------------------|
B|---------------------|-------------------------------|
G|----------------7-6--|-7-7---6-6---------------------|
D|------7---9--9-------|-7-7---6-6---4-4-4-4-----------|
A|--9-9---9-----9------|-5-5---4-4---4-4-4-4-----------|
E|---------------------|-------------2-2-2-2-----------|
					“I want you to love me”
Chorus
e|----------------------------------------14-14-----------|
B|-12-10-12-10-12-14----15----14--15--14--x--x--14/-12----|
G|-x--x--x--x--x--x-----x-----x---x---x---11-11-x---x-----|
D|-9--7--9--7--9--11----12----11--12--11--------11/-9-----|
A|--------------------------------------------------------|
E|--------------------------------------------------------|
   “Want you to make me feel”
e|-------------------------------------14-14--------------|
B|-10-12-10-12-14----15----14--15--14--x--x--14/-12-------|
G|-x--x--x--x--x-----x-----x---x---x---11-11-x---x--------|x2
D|-7--9--7--9--11----12----11--12--11--------11/-9--------|
A|--------------------------------------------------------|
E|--------------------------------------------------------|
Outro
e|----------------|-------------|
B|-10-12-10-12-14-|-------------|
G|-x--x--x--x--x--|-------------|
D|-7--9--7--9--11-|--2---4--5---|
A|----------------|--2---4--5---|
E|----------------|--0---2--3---|

Chorus Rhythm (Play with Chorus)
e|--------------------------------------|
B|--------------------------------------|
G|-----------------4-4-4-4-4-4-7-7-\----|
D|-5-5-5-5-5-5-5-7-4-4-4-4-4-4-7-7-\----|
A|-5-5-5-5-5-5-5-7-2-2-2-2-2-2-5-5-\----|
E|-3-3-3-3-3-3-3-5----------------------|
   “want you to make me feel”

e|-------------------|-------------------|
B|-------------------|-------------------|
G|-------------------|-------------------|
D|-5-5-5-5-5-5-5-7-\-|--2---4--5---------|
A|-5-5-5-5-5-5-5-7-\-|--2---4--5---------|
E|-3-3-3-3-3-3-3-5-\-|--0---2--3---------|

Bridge
e|---------------------------|
B|---------------------------|
G|-7-7-----------------------|
D|-7-7-7-7-9-9-9-9-----------|
A|-5-5-7-7-9-9-9-9-----------|
E|-----5-5-7-7-7-7-----------|
  “take me for a ride”

Bridge Lead
e|-------------14-14-14-14--------------------------|
B|-15-15-17-17-x--x--x--x--15-15-17-17-12-12-12-12--|
G|-x--x--x--x--11-11-11-11-x--x--x--x--x--x--x--x---|
D|-12-12-14-14-------------12-12-14-14-9--9--9--9---|
A|--------------------------------------------------|
E|--------------------------------------------------|
  “take me for a ride” 2nd Time (Play with Bridge)

e|-14-12-15-14-------------------------------------------|
B|-x--x--x--x--15-15-15-15-----15---14-12------14-12-----|
G|-11-9--12-11-x--x--x--x------x----x--x--14---x--x------|
D|-------------12-12-12-12-----12---11-9--x----11-9------|
A|----------------------------------------12-------------|
E|-------------------------------------------------------|

Intro: x8 (By itself)
Verse: x8 (With Intro
Chorus: x1
Chorus with Chorus Rhythm: x1
Intro and Verse: x8
Chorus: x1
Chorus with Chorus Rhythm: x1
Bridge: x4
Bridge x4 and Bridge Lead x 1
Chorus with Chorus Rhythm x5
Chorus with Chorus Rhythm x1
Outro x1
 ************************************

| /   slide up
| \   slide down
| h   hammer-on
| p   pull-off
| ~   vibrato
| +   harmonic
| x   Mute note
| b   Bend
| pb  Pre-bend
| br  Bend release
| pbr Pre-bend release
| brb Bend release bend

************************************
comments
We did not receive enough feedback on this tab! Please rate:
print report bad tab
1 2 3 4 5
I want to post or [tab]
guest
You may want to rate the tab now too:
select rating
Please do not post tabs as comments. Select "correction" instead!