Oops, an error
Loading. Please wait.

Russian Roulette Bass Tab

version 1
version 1

Whole song

Interactive

5,123 views 6 this week
no commentswrite comment
1 2 3 4 5
please rate
add to favorites
launch autoscroll
font size
0
reset
guitar tuner
Tab Pro tools
  • play this tab
  • loop segment
  • change instrument
  • show fretboard
  • metronome
×
Best way to learn
"Russian Roulette"
Autoscroll
slow
fast
+/-
esc
set tempo
stop
Contributor
Intro

G|----------|
D|----------|
A|----------|
E|--2--22---|  x 8


Verse

G|--------------------------------------------------------------------|
D|--------------------------------------------------------------------|
A|-------------------5--55---5--55----2--22---2--22----4--44---4--44--|
E|--2--22---2--22-----------------------------------------------------| x3


Chorus

G|-------------------------------------------|
D|-------------------------------------------|
A|--99999999--55555555--77777777--22222222---|
E|-------------------------------------------|

G|-------------------------------------------|
D|-------------------------------------------|
A|--99999999--55555555--77777777--2222-4444--|
E|-------------------------------------------|

Verse

G|--------------------------------------------------------------------|
D|--------------------------------------------------------------------|
A|-------------------5--55---5--55----2--22---2--22----4--44---4--44--|
E|--2--22---2--22-----------------------------------------------------| x2


Chorus

G|-------------------------------------------|
D|-------------------------------------------|
A|--99999999--55555555--77777777--22222222---|
E|-------------------------------------------|

G|-------------------------------------------|
D|-------------------------------------------|
A|--99999999--55555555--77777777--2222-4444--|
E|-------------------------------------------|


Bridge

G|-----------------------------------------|
D|-----------------------------------------|
A|--5~-------0~-------2~-------9~----7~----|
E|-----------------------------------------|

G|-----------------------------------------|
D|-----------------------------------------|
A|--5~-------6~-------7~-------8~----------|
E|-----------------------------------------|



Chorus

G|-------------------------------------------|
D|-------------------------------------------|
A|--99999999--55555555--77777777--22222222---|
E|-------------------------------------------| x3

G|-------------------------------------------|
D|-------------------------------------------|
A|--99999999--55555555--77777777--2222-4444--|
E|-------------------------------------------|

Intro

G|----------|
D|----------|
A|----------|
E|--2--22---|  x 8
comments
We did not receive enough feedback on this tab! Please rate:
print report bad tab
1 2 3 4 5
I want to post or [tab]
guest
You may want to rate the tab now too:
select rating
Please do not post tabs as comments. Select "correction" instead!