Oops, an error
Loading. Please wait.

Shut Up And Drive tab

version 2
version 2

Whole song

Interactive

by Rihanna
18,013 views 3 this week
2 commentsread comments
1 2 3 4 5
x 6
add to favorites
×
Save as Personal and add changes to this tab that will be seen only by you. Learn more ›
×
You can save this tab as Personal to edit and correct it or add notes. All changes will be seen only by you. Learn more »
launch autoscroll
font size
0
reset
how to read this tab
guitar tuner
edit
Autoscroll
slow
fast
+/-
esc
set tempo
stop
Author
Difficulty
Tabbed by W-Beast

At first sry 4 my English ;)

I saw many ways how play this song, but this is my best one:D and pretty simple:)

This is first song that I tabed. I dont say it's exactly :) but sound's good.
In this song guitarist all time plays the same chords.
In intro 4 times he plays the first tab. Then all song plays second tab;)
Listen the song, and you do it :))

1_tab
e|---------------------------------------|
B|---------------------------------------|
G|---------------------------------------|
D|-4-4--9-9-9-9--11-11-11-11-11-11-11-11-|
A|-4-4--9-9-9-9--11-11-11-11-11-11-11-11-|
E|-2-2--7-7-7-7---9--9--9--9--9--9--9--9-|  4x in begin..

second_tab
e|-------------------------------------------------------------------------|
B|-------------------------------------------------------------------------|
G|----------------------------------------9-9--4-4-4-4--6-6-6-6-6-6-6-6----|
D|-4-4--9-9-9-9--11-11-11-11-11-11-11-11--9-9--4-4-4-4--6-6-6-6-6-6-6-6----|
A|-4-4--9-9-9-9--11-11-11-11-11-11-11-11--7-7--2-2-2-2--4-4-4-4-4-4-4-4----|
E|-2-2--7-7-7-7---9--9--9--9--9--9--9--9-----------------------------------|

fnx 4 comments ;)
Suggest correction
Creating personal tab
Creating personal tab
You can edit any tab online and save it as your Personal.

You can edit, replace or remove any tab part or add personal notes – all changes will be seen only by you.

Personal tabs can be accessed anytime from any device, even offline.
Learn more »
comments
print report bad tab
2 comments total.
0 reply
Wallmersbacher 16 Sep 13, 2007 10:55 AM

Very good Tab.
Kay, its an ezee song, but th@ rocks :)

0 reply
Kit18 10 Oct 10, 2007 02:28 PM

yeah dude, thats pretty good, only the first chord played is Em not F#, still good going tho

guest
You may want to rate the tab now too:
select rating
Wanna post a correction for this tab? Suggest correction