Oops, an error
Loading. Please wait.

Take A Bow Tab

version 1
version 1

Whole song

Interactive

36,803 views 1 this week
3 commentsread comments
1 2 3 4 5
accurate
x 4
add to favorites
launch autoscroll
font size
0
reset
how to read this tab
guitar tuner
Autoscroll
slow
fast
+/-
esc
set tempo
stop
Help us to improve Ultimate-Guitar.com Take our survey!
×
Author
----------------------------------------------------------------------------
                             take a bow - RIHANNA
----------------------------------------------------------------------------
its pretty easy tab it might be wrong so tell me if its wrong and if you want the
chords there are probly other people who have put it up so yea

Tabbed by:justin.l
Email:justin-lal@hotmail.com

Tuning:standard

e|-------7-------------5-4-2-0----------------------------------------------|
B|-5-0-5----0-4-5--0-5------------------------------------------------------|
G|--------------------------------------------------------------------------|
D|--------------------------------------------------------------------------|
A|--------------------------------------------------------------------------|
E|--------------------------------------------------------------------------|


| /  slide up
| \  slide down
| h  hammer-on
| p  pull-off
| ~  vibrato
| +  harmonic
| x  Mute note
============================================================================
Suggest correction
comments
print report bad tab
3 comments total.
-1 reply
XxAmanda910xX 20 wrote on May 5 2009, 04:17 pm

not right

0 reply
SucraGuitar 10 wrote on May 6 2010, 08:34 am

Amanda obviously hasn't heard the song, this tab is spot on

0 reply
Singer:Emma 10 wrote on February 17 2013, 11:55 am

I think you have to play:
e|-------7-------------5--4-2-0----------------------------------------------|
B|-5-0-5----0-4-5--2-5------------------------------------------------------|
G|--------------------------------------------------------------------------|
D|--------------------------------------------------------------------------|
A|--------------------------------------------------------------------------|
E|--------------------------------------------------------------------------|

So you have to play the 8th tone on the 2nd fret and you have to make a brake between tone 10 and 11 :)

But well done. I like it.

guest
You may want to rate the tab now too:
select rating
Wanna post a correction for this tab? Suggest correction