Oops, an error
Loading. Please wait.

Umbrella Tab

version 1
version 1

Whole song

Interactive

63,848 views 6 this week
2 commentsread comments
1 2 3 4 5
accurate
x 7
add to favorites
launch autoscroll
font size
0
reset
how to read this tab
guitar tuner
Autoscroll
slow
fast
+/-
esc
set tempo
stop
Help us to improve Ultimate-Guitar.com Take our survey!
×
Author
Difficulty
novice
Name:JMAC13
Song:Umbrella
Artist:Rihanna

Alright for this tab i was listening to version on aol sessions. heres the link 
if you have any questions email me thehitter_36@yahoo.com
the only time you dont do the keyboard part is in the bridge

Intro
guitar 1
|--------------------------------------------------------------------------|
|--------------------------------------------------------------------------|
|------------------55555555------------------------------------------------|
|---7--7--77777777-55555555-55555555-33333333------------------------------|
|---7--7--77777777-33333333-55555555-33333333------------------------------|
|---5--5--55555555----------33333333-11111111------------------------------|
Guitar 2 (keyboard part)
|---9--9--9--9-9-9-9-9--9--9--9--9--9--9--9--9---------------------------|
|-11-11-11-11-9-9-9-9-13-13-13-13-11-11-11-11-13-14----------------------|
|------------------------------------------------------------------------|
|------------------------------------------------------------------------|
|------------------------------------------------------------------------|
|------------------------------------------------------------------------|
Verse
guitar 1
|------------------------------------------------------------------------|
|------------------------------------------------------------------------|
|-----------5------------------------------------------------------------|
|---7---7---5---5---3----------------------------------------------------|
|---7---7---3---5---3----------------------------------------------------|
|---5---5-------3---1----------------------------------------------------|
guitar 2
|---9--9--9--9-9-9-9-9--9--9--9--9--9--9--9--9---------------------------|
|-11-11-11-11-9-9-9-9-13-13-13-13-11-11-11-11-13-14----------------------|
|------------------------------------------------------------------------|
|------------------------------------------------------------------------|
|------------------------------------------------------------------------|
|------------------------------------------------------------------------|
chorus
guitar 1
|------------------------------------------------------------------------|
|------------------------------------------------------------------------|
|------5-----------------------------------------------------------------|
|--3---5---5---7------X4-------------------------------------------------|
|--3---3---5---7---------------------------------------------------------|
|--1-------3---5---------------------------------------------------------|
guitar 2
|---9--9--9--9-9-9-9-9--9--9--9--9--9--9--9--9---------------------------|
|-11-11-11-11-9-9-9-9-13-13-13-13-11-11-11-11-13-14----------------------|
|------------------------------------------------------------------------|
|------------------------------------------------------------------------|
|------------------------------------------------------------------------|
|------------------------------------------------------------------------|
Suggest correction
comments
print report bad tab
2 comments total.
0 reply
Bad Chord 10 wrote on March 5 2008, 02:50 pm

Sounds nothing like it

0 reply
MusicMaster94 52 wrote on February 21 2010, 12:43 pm

I agree with BadChord and also why tab a pointlessly useless song out on guitar, even if there is a guitar in it?
Only tab good songs!!

guest
You may want to rate the tab now too:
select rating
Wanna post a correction for this tab? Suggest correction