Oops, an error
Loading. Please wait.
We have an official Unfaithful tab made by UG professional guitarists. Check out the tab »
×
by Rihanna
23,817 views 6 this week
no commentswrite comment
1 2 3 4 5
1 last vote to show rating
add to favorites
×
Save as Personal and add changes to this tab that will be seen only by you. Learn more ›
×
You can save this tab as Personal to edit and correct it or add notes. All changes will be seen only by you. Learn more »
launch autoscroll
font size
0
reset
how to read this tab
guitar tuner
edit
Autoscroll
slow
fast
+/-
esc
set tempo
stop
Author
Difficulty
|-----------10-11-13--------11-10-11-10--------|
|--------13------------------------------------|
|-----12-----------------12--------------------|
|--10-----------------10-----------------------|
|----------------------------------------------|
|----------------------------------------------|

i know im missing some stuff inbetween..  but this is my first night at the song..
it on guitar first then gotta learn it on piano for my girlfriend.. shez obsessed with it,
tho the lyricz are about cheating on some guy :S.. ha.. yah.. i know.. i've wondered 
it too haha!..  kay so yah.. i'll update this as much as possible.. i just have NO idea
that other guy was thinkin with what he posted... mine sounds a little more real i 
and if not.. try tuning ur guitar to the song.. kuz if this tab sounds wrong, the tunings the problem....

|----------------------------------------------|
|--------3-4-6-----4-3-4-3---------------------|
|------5---------------------------------------|
|----5-----------5-----------------------------|
|--3-----------3-------------------------------|
|----------------------------------------------|

            
            
Suggest correction
Creating personal tab
Creating personal tab
You can edit any tab online and save it as your Personal.

You can edit, replace or remove any tab part or add personal notes – all changes will be seen only by you.

Personal tabs can be accessed anytime from any device, even offline.
Learn more »
Give kudos to tab author, rate the tab!
1 2 3 4 5
comments
print report bad tab
guest
You may want to rate the tab now too:
select rating
Wanna post a correction for this tab? Suggest correction