Oops, an error
Loading. Please wait.
We have an official Unfaithful tab made by UG professional guitarists. Check out the tab »
×
by Rihanna
92,371 views 18 this week
4 commentsread comments
1 2 3 4 5
x 19
add to favorites
×
Save as Personal and add changes to this tab that will be seen only by you. Learn more ›
×
You can save this tab as Personal to edit and correct it or add notes. All changes will be seen only by you. Learn more »
launch autoscroll
font size
0
reset
how to read this tab
guitar tuner
edit
Autoscroll
slow
fast
+/-
esc
set tempo
stop
    >>---------->>--------->CAPO ON 3rd FRET!!!<---------<<----------<<


e|------------------------------|---------------------------|
B|-----------0--1--3--1--0--1--0|-----------0--1--3--1--0--1|
G|--------2---------------------|--------2------------------|
D|-----2------------------------|-----2---------------------|
A|--0---------------------------|--0------------------------|
E|------------------------------|---------------------------|

e|------------------------------|---------------------------|
B|-----------0--1--3--1--0--1---|-----------0--1--0---------|
G|--------2--------------------2|--------2-----------2--1--2|And repeat!
D|-----3------------------------|-----3---------------------|
A|------------------------------|--3------------------------|
E|--1---------------------------|---------------------------|


Tips:

Put a capo on the 3rd fret if you want to play along with the song.

Listen carefully to the song, or try to play along, so that you can get the right rythm.

Suggest correction
Creating personal tab
Creating personal tab
You can edit any tab online and save it as your Personal.

You can edit, replace or remove any tab part or add personal notes – all changes will be seen only by you.

Personal tabs can be accessed anytime from any device, even offline.
Learn more »
comments
print report bad tab
4 comments total. Showing first comments.
0 reply
wonderballs 10 Jul 20, 2006 07:45 AM

i think this is the way its ment to be played

you got 1 note wrong

e|------------------------------|---------------------------|
B|-----------0--1--3--1--0--1---|-----------0--1--3--1--0--1|
G|--------2--------------------2|--------2------------------|
D|-----2------------------------|-----2---------------------|
A|--0---------------------------|--0------------------------|
E|------------------------------|---------------------------|

0 reply
wonderballs 10 Jul 20, 2006 07:48 AM

sh*t sorry you were right i fort that the intro was the verse

the tab is spot on

0 reply
theonlycook 10 Mar 21, 2009 04:02 AM

Nice one. I love this tab, great!

guest
You may want to rate the tab now too:
select rating
Wanna post a correction for this tab? Suggest correction