Oops, an error
Loading. Please wait.

Brave chords

1,255 views 45 this week
no commentswrite comment
1 2 3 4 5
x 4
add to favorites
×
Save as Personal and add changes to this tab that will be seen only by you. Learn more ›
×
You can save this tab as Personal to edit and correct it or add notes. All changes will be seen only by you. Learn more »
launch autoscroll
font size
0
reset
transpose
0
reset
display chords
guitar tuner
edit
Autoscroll
slow
fast
+/-
esc
set tempo
stop
Author
Difficulty
Strumming
There is no strumming pattern for this song yet. and get +5 IQ
-------------------------------------------------------------------------------
                           Riley Pearce - Brave
-------------------------------------------------------------------------------
Tabbed by: Stefan Premovic

Tuning: Standard

[Chords]
   Em *    Em      D       G *     G       C
e|-3-------0-------2-------7-------3-------0-------|
B|-0-------0-------3-------8-------3-------1-------|
G|-0-------0-------2-------0-------0-------0-------|
D|-2-------2-------0-------0-------0-------2-------|
A|-2-------2-----------------------2-------3-------|
E|-0-------0-----------------------3---------------|


[Intro]
   Em *            D               G *             C
e|-3---------------2---------------7---------------0---------------|
B|-0---------------3---------------8---------------1---------------|
G|---------------------------------0-------------------------------| x2
D|-----------------0-----------------------------------------------|
A|-------------------------------------------------3---------------|
E|-0---------------------------------------------------------------|


[Verse 1] 
(same as intro)

Em *         D            G *   C
   Are you scared because I am too
                    Em *           D        G * C
   This fear in my head has been there for too long
Em *         D            G *  C
   We sleep now with the light on,
                      Em *
   The shadows make shapes in the light
          D                G *        C
   And I don't know what they might mean

(begin strumming)
Em    D  G  C
Em    D  G  C

[Verse 2]
Em *        D           G *   C
   Are you cold because I am too
                  Em *               
   So cover your toes with the jacket
             D               G *   C
   And your bones with the blanket I weave
Em *           D               G * C
   She tells me that I will be alright
                         Em *
   And for a seconds it feels that I believe her
          D             G *        C
   'Cause I forget the way that I've felt


[Chorus 1]
         C                D            Em *
   I'm trying, I'm just trying to be brave
          D      G *    C
   Uuh-uh uuh-uh uuu-uh uuu-uh-uh
                           Em *
   I'm just trying to be brave
          D      G *    C
   Uuh-uh uuh-uh uuu-uh uuu-uh-uh

              G                    Em *                   D
   It’s this body of water that splits us right down the middle,
                       
   And I'd be coming back...

   Em *            D       G *     C
e|-------7-10----7-------7-10----7---------------------------------|
B|-10--------------10--------------8p7p5---------------------------|
G|-----------------------------------------------------------------|
D|-----------------------------------------------------------------|
A|-----------------------------------------------------------------|
E|-----------------------------------------------------------------|
   ...for you
 
   Em *            D       G *     C                                 Em
e|-------7-10----7-------7-10----7-------------------------3-2-0---|-0--->
B|-10--------------10--------------8p7p5-------------------------3-|(0)-->
G|-----------------------------------------------------------------|(0)-->
D|-----------------------------------------------------------------|(2)-->
A|-----------------------------------------------------------------|(2)-->
E|-----------------------------------------------------------------|(0)-->


[Verse 3]
Em          D            G     C
   Are you lost, because I am too
                    Em 
   Directions mean nothing in the dark
             D           G         C
   When you don't know where you stand
Em                D                G          C
   The masks are gone, so are our footprints too
                Em                               D          G       C
   To get home now will take something that I'm not sure if I have left


[Chorus 2]

         C                D            Em *
   I'm trying, yeah I'm trying to be brave
          D      G *     C
   Uuh-uh uuh-uh uuu-uh uuu-uh-uh
                           Em *
   I'm just trying to be brave
          D      G *     C
   Uuh-uh uuh-uh uuu-uh uuu-uh-uh

              G                    Em *                   D
   It’s this body of water that splits us right down the middle,
                       
   And I'd be coming back...

   Em *            D       G *     C
e|-------7-10----7-------7-10----7---------------------------------|
B|-10--------------10--------------8p7p5---------------------------|
G|-----------------------------------------------------------------|
D|-----------------------------------------------------------------|
A|-----------------------------------------------------------------|
E|-----------------------------------------------------------------|
   ...for you,                                   I'd be coming back
   Em *            D       G *     C
e|-------7-10----7-------7-10----7---------------------------------|
B|-10--------------10--------------8p7p5---------------------------|
G|-----------------------------------------------------------------|
D|-----------------------------------------------------------------|
A|-----------------------------------------------------------------|
E|-----------------------------------------------------------------|
   ...for you,                                Oh,I'd be coming back
   Em *            D       G *     C
e|-------7-10----7-------7-10----7-------------7-10----7-10----7---|
B|-10--------------10--------------8p7p5---8-10------10------10--8-|
G|-----------------------------------------------------------------|
D|-----------------------------------------------------------------|
A|-----------------------------------------------------------------|
E|-----------------------------------------------------------------|
   ...for you,                                   I'd be coming back
   Em *            D       G *     C
e|-------7-10----7-------7-10----7---------------------------------|
B|-10--------------10--------------8p7p5---------------------------|
G|-----------------------------------------------------------------|
D|-----------------------------------------------------------------|
A|-----------------------------------------------------------------|
E|-----------------------------------------------------------------|
   ...for you



**********************************

| p   pull-off

**********************************

            
            
Suggest correction
Creating personal tab
Creating personal tab
You can edit any tab online and save it as your Personal.

You can edit, replace or remove any tab part or add personal notes – all changes will be seen only by you.

Personal tabs can be accessed anytime from any device, even offline.
Learn more »
comments
print report bad tab
guest
You may want to rate the tab now too:
select rating
Wanna post a correction for this tab? Suggest correction