Oops, an error
Loading. Please wait.

Portions For Foxes bass

version 1
version 1

Whole song

Interactive

2,559 views 9 this week
no commentswrite comment
1 2 3 4 5
x 3
add to favorites
×
Save as Personal and add changes to this tab that will be seen only by you. Learn more ›
×
You can save this tab as Personal to edit and correct it or add notes. All changes will be seen only by you. Learn more »
launch autoscroll
font size
0
reset
guitar tuner
edit
Autoscroll
slow
fast
+/-
esc
set tempo
stop
Author
Difficulty
An easier way to play this is simply D-D-A-A-G-G-D-D for the verses and choruses 
and then the bridge and outro as it's mapped out below.  
The tab below has a few more variations.

INTRO:
Guitar harmonics part for 4 measures
G|----------------|----------------|----------------|----------------|
D|----------------|----------------|----------------|----------------|
A|----------------|----------------|----------------|----------------|
E|----------------|----------------|----------------|----------------|

Bass enters
G|----------------|----------------|----------------|----------------|
D|----------------|----------------|----------------|----------------|
A|5-5-5-5-5-5-5-5-|5-5-5-5-5-5-5-5-|----------------|----------------|
E|----------------|----------------|5-5-5-5-5-5-5-5-|5-5-5-5-5-5-5-5-|

G|----------------|----------------|----------------|----------------|
D|----------------|----------------|----------------|----------------|
A|----------------|----------------|5-5-5-5-5-5-5-5-|5-5-5-5-5-5-5-5-|
E|3-3-3-3-3-3-3-3-|3-3-3-3-3-3-3-3-|----------------|----------------|

G|----------------|----------------|----------------|----------------|
D|----------------|----------------|----------------|----------------|
A|5-5-5-5-5-5-5-5-|5-5-5-7-7-7-5-5-|----------------|7-7-7-9-9-9-7-7-|
E|----------------|----------------|5-5-5-5-5-5-5-5-|----------------|

G|----------------|----------------|----------------|----------------|
D|----------------|5-5-5-7---5-4---|----------------|----------------|
A|----------------|--------------7-|5-5-5-5-5-5-5-5-|7-7-7/9---9-9-9-|
E|3-3-3-3-3-3-3-3-|----------------|----------------|----------------|

VERSE1:
G|----------------|----------------|----------------|----------------|
D|----------------|----------------|----------------|----------------|
A|5-5-5-5-5-5-5-5-|5-5-5-5-5-5-5-5-|----------------|----------------|
E|----------------|----------------|5-5-5-5-5-5-5-5-|5-5-5-5-5-5-5-5-|

G|----------------|----------------|----------------|----------------|
D|----------------|----------------|----------------|----------------|
A|----------------|----------------|5-5-5-5-5-5-5-5-|5-5-5-5-5-5-5-5-|
E|3-3-3-3-3-3-3-3-|3-3-3-3-3-3-3-3-|----------------|----------------|

G|----------------|----------------|----------------|----------------|
D|----------------|----------------|----------------|----------------|
A|5-5-5-5-5-5-5-5-|5-5-5-5-5-5-5-5-|----------------|----------------|
E|----------------|----------------|5-5-5-5-5-5-5-5-|5-5-5-5-5-5-5-5-|

G|----------------|----------------|----------------|----------------|
D|----------------|----------------|----------------|----------------|
A|----------------|----------------|5-5-5-5-5-5-5-5-|7-7-7/9---9-9-9-|
E|3-3-3-3-3-3-3-3-|3-3-3-3-3-3-3-3-|----------------|----------------|

CHORUS1:
G|----------------|----------------|----------------|----------------|
D|----------------|----------------|----------------|----------------|
A|5-5-5-5-5-5-5-5-|5-5-5-7-7-7-5-5-|----------------|7-7-7-9-9-9-7-7-|
E|----------------|----------------|5-5-5-5-5-5-5-5-|----------------|

G|----------------|----------------|----------------|----------------|
D|----------------|5-5-5-7---5-4---|----------------|----------------|
A|----------------|--------------7-|5-5-5-5-5-5-5-5-|7-7-7/9---9-9-9-|
E|3-3-3-3-3-3-3-3-|----------------|----------------|----------------|

INSTRUMENTAL: (D-A-G-D)
G|----------------|----------------|----------------|----------------|
D|----------------|----------------|----------------|----------------|
A|5-5-5-5-5-5-5-5-|5-5-5-5-5-5-5-5-|----------------|----------------|
E|----------------|----------------|5-5-5-5-5-5-5-5-|5-5-5-5-5-5-5-5-|

G|----------------|----------------|----------------|----------------|
D|----------------|----------------|----------------|----------------|
A|----------------|----------------|5-5-5-5-5-5-5-5-|5-5-5-5-5-5-5-5-|
E|3-3-3-3-3-3-3-3-|3-3-3-3-3-3-3-3-|----------------|----------------|

VERSE2:  Same as Verse 1

CHORUS2: (D-A-G-D)x2
G|----------------|----------------|----------------|----------------|
D|----------------|----------------|----------------|----------------|
A|5-5-5-5-5-5-5-5-|5-5-5-5-5-5-5-5-|----------------|----------------|
E|----------------|----------------|5-5-5-5-5-5-5-5-|5-5-5-5-5-5-5-5-|

G|----------------|----------------|----------------|----------------|
D|----------------|----------------|----------------|----------------|
A|----------------|----------------|5-5-5-5-5-5-5-5-|5-5-5-5-5-5-5-5-|
E|3-3-3-3-3-3-3-3-|3-3-3-3-3-3-3-3-|----------------|----------------|
Repeat

BRIDGE:
G|----------------|----------------|----------------|----------------|
D|----------------|----------------|----------------|5-5-5-5-4-4-4-4-|
A|----------------|----------------|----------------|----------------|
E|----------------|----------------|----------------|----------------|

G|----------------|----------------|----------------|----------------|
D|----------------|----------------|----------------|----------------|
A|2-2-2-2-2-2-2-2-|0-0-0-0-0-0-0-0-|5-5-5-5-5-5-5-5-|4-4-4-4-4-4-4-4-|
E|----------------|----------------|----------------|----------------|

G|----------------|----------------|----------------|----------------|
D|5-5-5-5-5-5-5-5-|4-4-4-4-4-4-4-4-|----------------|----------------|
A|----------------|----------------|5-5-5-5-5-5-5-5-|4-4-4-4-4-4-4-4-|
E|----------------|----------------|----------------|----------------|

G|----------------|----------------|----------------|----------------|
D|5-5-5-5-5-5-5-5-|4-4-4-4-4-4-4-4-|----------------|----------------|
A|----------------|----------------|5-5-5-5-5-5-5-5-|4-4-4-4-4-4-4-4-|
E|----------------|----------------|----------------|----------------|

G|----------------|----------------|----------------|----------------|
D|5-5-5-5-5-5-5-5-|4-4-4-4-4-4-4-4-|2-2-2-2-2-2-2-2-|2-2-2-2-2-2-2-2-|
A|----------------|----------------|----------------|----------------|
E|----------------|----------------|----------------|----------------|

G|2-2-2-2-2-2-2-2-|----------------|
D|----------------|4-----2---------|
A|----------------|------------4---|
E|----------------|----------------|

Guitar harmonics part for 4 measures
G|----------------|----------------|----------------|----------------|
D|----------------|----------------|----------------|----------------|
A|----------------|----------------|----------------|----------------|
E|----------------|----------------|----------------|----------------|

VERSE3:  (don't play first two measures)
G|----------------|----------------|----------------|----------------|
D|----------------|----------------|----------------|----------------|
A|----------------|----------------|----------------|----------------|
E|----------------|----------------|5-5-5-5-5-5-5-5-|5-5-5-5-5-5-5-5-|

G|----------------|----------------|----------------|----------------|
D|----------------|----------------|----------------|----------------|
A|----------------|----------------|5-5-5-5-5-5-5-5-|5-5-5-5-5-5-5-5-|
E|3-3-3-3-3-3-3-3-|3-3-3-3-3-3-3-3-|----------------|----------------|

G|----------------|----------------|----------------|----------------|
D|----------------|----------------|----------------|----------------|
A|5-5-5-5-5-5-5-5-|5-5-5-5-5-5-5-5-|----------------|----------------|
E|----------------|----------------|5-5-5-5-5-5-5-5-|5-5-5-5-5-5-5-5-|

G|----------------|----------------|----------------|----------------|
D|----------------|----------------|----------------|----------------|
A|----------------|----------------|5-5-5-5-5-5-5-5-|7-7-7/9---9-9-9-|
E|3-3-3-3-3-3-3-3-|3-3-3-3-3-3-3-3-|----------------|----------------|

CHORUS3:  play chorus1 x2
G|----------------|----------------|----------------|----------------|
D|----------------|----------------|----------------|----------------|
A|5-5-5-5-5-5-5-5-|5-5-5-7-7-7-5-5-|----------------|7-7-7-9-9-9-7-7-|
E|----------------|----------------|5-5-5-5-5-5-5-5-|----------------|

G|----------------|----------------|----------------|----------------|
D|----------------|5-5-5-7---5-4---|----------------|----------------|
A|----------------|--------------7-|5-5-5-5-5-5-5-5-|7-7-7/9---9-9-9-|
E|3-3-3-3-3-3-3-3-|----------------|----------------|----------------|
Repeat

OUTRO:  DDGA x4
G|----------------|----------------|----------------|----------------|
D|----------------|----------------|----------------|----------------|
A|5-5-5-5-5-5-5-5-|5-5-5-5-5-5-5-5-|----------------|----------------|
E|----------------|----------------|3-3-3-3-3-3-3-3-|5-5-5-5-5-5-5-5-|

G|----------------|----------------|----------------|----------------|
D|----------------|----------------|----------------|----------------|
A|5-5-5-5-5-5-5-5-|5-5-5-5-5-5-5-5-|----------------|----------------|
E|----------------|----------------|3-3-3-3-3-3-3-3-|5-5-5-5-5-5-5-5-|

G|----------------|----------------|----------------|----------------|
D|----------------|----------------|----------------|----------------|
A|5-5-5-5-5-5-5-5-|5-5-5-5-5-5-5-5-|----------------|----------------|
E|----------------|----------------|3-3-3-3-3-3-3-3-|5-5-5-5-5-5-5-5-|

G|----------------|----------------|----------------|----------------|
D|----------------|----------------|----------------|----------------|
A|5-5-5-5-5-5-5-5-|5-5-5-5-5-5-5-5-|----------------|----------------|
E|----------------|----------------|3-3-3-3-3-3-3-3-|5-5-5-5-5-5-5-5-|

G|----------------|----------------|----------------|----------------|
D|----------------|----------------|----------------|----------------|
A|5~--------------|----------------|----------------|----------------|
E|----------------|----------------|----------------|----------------|

            
            
Suggest correction
Creating personal tab
Creating personal tab
You can edit any tab online and save it as your Personal.

You can edit, replace or remove any tab part or add personal notes – all changes will be seen only by you.

Personal tabs can be accessed anytime from any device, even offline.
Learn more »
Give kudos to tab author, rate the tab!
1 2 3 4 5
comments
print report bad tab
guest
You may want to rate the tab now too:
select rating
Wanna post a correction for this tab? Suggest correction