Oops, an error
Loading. Please wait.

Silver Lining tab

version 1
version 1

Whole song

9,123 views 1 this week
2 commentsread comments
1 2 3 4 5
1 last vote to show rating
add to favorites
×
Save as Personal and add changes to this tab that will be seen only by you. Learn more ›
×
You can save this tab as Personal to edit and correct it or add notes. All changes will be seen only by you. Learn more »
launch autoscroll
font size
0
reset
how to read this tab
guitar tuner
edit
Autoscroll
slow
fast
+/-
esc
set tempo
stop
Author
Difficulty
I wasn't too satisfied with the other tablature for this song so I thought I would give 
a wack. First tab ever!!

INTRO

|-15/17--15-------------------|-------------|
|-----------17-17-17-15-------|---------15--|
|-----------------------14/16-|-16-16p14----|
|-----------------------------|-------------|
|-----------------------------|-------------|
|-----------------------------|-------------|
             x3
V1 And I'm not.....

|-15---15---15----------------|
|---17---17---17--15----------|
|-------------------16--------|
|-----------------------------|
|-----------------------------|
|-----------------------------|

V2 And I was your silver lining....

|-15------------------|-15-------------------|-------------------|
|---15-----17---------|---15--15--17---------|----------------15-|
|-----16-----16-------|-----16------16-------|-16--------14-16---|
|-------h17-----17-14-|---------------17-14--|---17-14-17--------|
|---------------------|----------------------|-------------------|
|---------------------|----------------------|-------------------|
                                x2

CHORUS (hooray hooray..)

|-191919-14--16/17-15-|-191919-14--16/17--14--16/17-14-|
|---------------------|--------------------------------|
|---------------------|--------------------------------| x2
|---------------------|--------------------------------|
|---------------------|--------------------------------|
|---------------------|--------------------------------|
           x2

Fill
|--------------------------|
|-------------14/15--------|
|-15/16--16/17------17-16--|
|--------------------------|
|--------------------------|
|--------------------------|

Repeat V2 then CHORUS + the first part just once more
then the CHORUS again but this time when repeating the fist part the second time do this:

|-202020-17-15--| we'll call this version 2

then finish out the chorus

For V3 (And the grass..) there is no lead but there is a triangle being played. You can 
that sound by picking the high E just beyond the nut (just in front of the tuning key)

Then Repeat V2 into CHORUS which you repeat twice and then verion 2
The end is just variation of the CHORUS

Enjoy

            
            
Suggest correction
Creating personal tab
Creating personal tab
You can edit any tab online and save it as your Personal.

You can edit, replace or remove any tab part or add personal notes – all changes will be seen only by you.

Personal tabs can be accessed anytime from any device, even offline.
Learn more »
Give kudos to tab author, rate the tab!
1 2 3 4 5
comments
print report bad tab
2 comments total.
0 reply
MeganRox 10 Jan 26, 2008 03:39 PM

I think the intro and chorus are right but I'm not so sure about the rest of the tab.

0 reply
LT_rose 10 Jun 17, 2012 07:19 PM

Just a suggestion, but the latter half of the intro might sound better like this:

|-15/17--15-------------------|----------------|
|-----------17-17-17-15-------|----------15----|
|-----------------------14/16-|-16-16-17----16-|
|-----------------------------|----------------|
|-----------------------------|----------------|
|-----------------------------|----------------|
x3

guest
You may want to rate the tab now too:
select rating
Wanna post a correction for this tab? Suggest correction