Oops, an error
Loading. Please wait.

The Good Tab

531 views 3 this week
2 commentsread comments
1 2 3 4 5
2 more votes to show rating
add to favorites
launch autoscroll
font size
0
reset
how to read this tab
guitar tuner
×
Best way to learn
"The Good"
Autoscroll
slow
fast
+/-
esc
set tempo
stop
----------------------------------------------------------------------
                  Band: Rilo Kiley - Song : The Good
----------------------------------------------------------------------
   web site at   www.saddle-creek.com
Tabbed by: elmer


Tuning: standard  
  this is only the into....... i dont know the rest

e|----------------------------------------------------|
B|---------0-----------------------0------------------|
G|----------------0-------0--------------0------0-----|
D|----------------------------------------------------|
A|----5h77---3h55----5h77------5h77--3h55---5h77------|
E|----------------------------------------------------|
Suggest correction
Give kudos to tab author, rate the tab!
1 2 3 4 5
comments
print report bad tab
2 comments total.
0 reply
thomasngo 10 Feb 14, 2003 07:00 PM

I saw Jenny play last night:

|--------------------------------||
|--------0-----------------------||
|----------0-------0---------0---||
|--0h2-2-------------0---------0-||
|------------0h2-2-----2/3-3-----||
|--------------------------------||

0 reply
thomasngo 10 Feb 14, 2003 07:00 PM

I saw Jenny play last night:
<TT>
|--------------------------------||
|--------0-----------------------||
|----------0-------0---------0---||
|--0h2-2-------------0---------0-||
|------------0h2-2-----2/3-3-----||
|--------------------------------||
</TT>

guest
You may want to rate the tab now too:
select rating
Wanna post a correction for this tab? Suggest correction