Oops, an error
Loading. Please wait.

The Moneymaker tab

version 1
version 1

Whole song

Interactive

10,091 views 1 this week
3 commentsread comments
1 2 3 4 5
x 4
add to favorites
×
Save as Personal and add changes to this tab that will be seen only by you. Learn more ›
×
You can save this tab as Personal to edit and correct it or add notes. All changes will be seen only by you. Learn more »
launch autoscroll
font size
0
reset
how to read this tab
guitar tuner
edit
Autoscroll
slow
fast
+/-
esc
set tempo
stop
Rilo Kiley
The Moneymaker
Under the blacklight
2007
Submitted by: paramore_fans@yahoo.com

Key: G

Tuning: Standard EADGBe

Chords used:
Em - 022000
G -  320033
Am - x02210
C -  x32010
D -  xx0232


Intro: including Bass, Em-G-Am-Em (x3)

Guitar 2:
e|----12--------------------------12-----------------------|
B|-------15-13-12h13p12--------------15-13-12h13-----------|
G|-12-------------------12-12--12----------------12--------|
D|---------------------------------------------------0-0h2-| (x2)
A|---------------------------------------------------------|
E|---------------------------------------------------------|


Verse 1:
Em               G
  You've got the money maker
Am               Em
  You've got the money maker
Em               G
  You've got the money maker
Am             Em
  This is your chance to make it


Chorus 1: Jenny Lewis sings like an orgasmic moan!!!
Em      G  Am  Em
Out out out oh yeah
           Em      G  Am  Em
You'll get out out out oh yeah


Verse 2:
Em               G
  You've got the money maker
Am                Em
  They showed the money to you
Em                G
  You showed them what you can do
Am                 Em
  Showed them your money Make you get


(Repeat Chorus 1)


Interlude: Em-G-Am-Em (x2)

Guitar 2:
e|----12--------------------------12-----------------------|
B|-------15-13-12h13p12--------------15-13-12h13-----------|
G|-12-------------------12-12--12----------------12--------|
D|---------------------------------------------------0-0h2-| (x2)
A|---------------------------------------------------------|
E|---------------------------------------------------------|

Guitar 3:
e|-19--17--15p12--10-10h12-|
B|-------------------------|
G|-------------------------|
D|-------------------------|
A|-------------------------|
E|-------------------------|


Verse 3:
Em            G
  You are the money maker
Am             Em
  She wants to overtake you
Em             G
  You know you wanna make her
Am              G
  Show her your money maker


Chorus 2: another orgasmic moan!!!
         Em      G  Am  Em
She said out out out oh yeah
(Repeat)
        Em      G  Am  Em
You get out out out oh yeah
(repeat)


Bridge:
    C    D     Em
And deep in my hands
  C    D      G       C
I will if you want me to


Interlude: Em-G-Am-Em (x4)


Guitar 2:
e|----12--------------------------12-----------------------|
B|-------15-13-12h13p12--------------15-13-12h13-----------|
G|-12-------------------12-12--12----------------12--------|
D|---------------------------------------------------0-0h2-| (x4)
A|---------------------------------------------------------|
E|---------------------------------------------------------|


(Repeat Chorus 2)


Outro: Em-G-Am-Em (x2) end on Em

Guitar 3:
e|-19--17--15p12--10-10h12-|
B|-------------------------|
G|-------------------------|
D|-------------------------|
A|-------------------------|
E|-------------------------|

            
            
Suggest correction
Creating personal tab
Creating personal tab
You can edit any tab online and save it as your Personal.

You can edit, replace or remove any tab part or add personal notes – all changes will be seen only by you.

Personal tabs can be accessed anytime from any device, even offline.
Learn more »
comments
print report bad tab
3 comments total.
0 reply
mrmen 10 Sep 12, 2007 01:16 PM

Cheers, i'm not good at tabbing and really wanted to play this song.

0 reply
Julian K 82 Oct 13, 2007 12:14 PM

perfect

0 reply
bangxalex 63 Aug 15, 2008 04:54 PM

i dont want to be rude but its partially incorrect
hope im not being a jerk in any manner

guest
You may want to rate the tab now too:
select rating
Wanna post a correction for this tab? Suggest correction