Oops, an error
Loading. Please wait.

Photograph tab

version 2
version 2

Whole song

Interactive

361 views 6 this week
no commentswrite comment
1 2 3 4 5
2 more votes to show rating
add to favorites
×
Save as Personal and add changes to this tab that will be seen only by you. Learn more ›
×
You can save this tab as Personal to edit and correct it or add notes. All changes will be seen only by you. Learn more »
launch autoscroll
font size
0
reset
how to read this tab
guitar tuner
edit
Autoscroll
slow
fast
+/-
esc
set tempo
stop
Author
Difficulty
maguri [tm] 31,333
intermediate
---------------------------------------------------------------------------
                Photograph– Ringo Starr 
---------------------------------------------------------------------------
Tabbed by: maguri
Tuning: Standard

Ringo Starr 
Photograph (1973)
(George Harrison/Richard Starkey)

From: "Ringo"

---------------------------------------------------------------------------

capo: 2nd fret
play: D
key: E

---------------------------------------------------------------------------

Whatever your strumming pattern, try to include the following voicings
into your strumming:

INTRO / INTERLUDE
  A
  1 + 2 + 3 + 4 +  1 + 2 + 3 + 4 +  1 + 2 + 3 + 4 +  1 + 2 + 3 + 4 +
e|----------------|----------------|----------------|------5---------|
B|--------2-3---5-|------2---------|--------2-3---5-|------2---------|
G|2-------2-2---2-|------2-------22|2-------2-2---2-|------2-------22|
D|2---------------|------2-------22|2---------------|--------------22|
A|0---------------|--------------00|0---------------|--------------00|
E|----------------|----------------|----------------|----------------|
  A     
  1 + 2 + 3 + 4 +  1 + 2 + 3 + 4 +  
e|----------------|--2---3---5-----|
B|--------2-3---5-|--2---2---2-----|
G|2-------2-2---2-|--2---2---2-----|
D|2---------------|----------------|
A|0---------------|----------------|
E|----------------|----------------|

LINK 1
  A                          A7
  1 + 2 + 3 + 4 +  1 + 2 + 3 + 4 +  
e|----------------|--------2-3---5-|
B|------2-2-3---5-|------5-2-2---3-|
G|2-----2-2-2---2-|------2---2-----|
D|2---------------|----------------|
A|0---------------|----------------|
E|----------------|----------------|

LINK 2
  A     
  1 + 2 + 3 + 4 +  1 + 2 + 3 + 4 +  
e|----------------|--2---3---5-----|
B|--------2-3---5-|--2---2---2-----|
G|2-------2-2---2-|--2---2---2-----|
D|2---------------|----------------|
A|0---------------|----------------|
E|----------------|----------------|

LINK 3
  Bm   
  1 + 2 + 3 + 4 +  
e|--2-2-2-2-2-2-2-|
B|--3-3-2-2-3-x-x-|
G|4-4-4-4-4-4-4-4-|
D|4---------4-4---|
A|2---------------|
E|----------------|
---------------------------------------------------------------------------


INTRO (see above)
| A | % | A | % |
| A | % | 


VERSE
D
Every time I see your face
     G               D                | A | A A7 |
It reminds me of the places we used to go (LINK 1)
    D                 
But all I've got is a photograph
      G                  D            | A | % |
And I realize you're not coming back anymore (LINK 2)


MIDDLE 8
F#
  I thought I'd make it
    Bm
The day you went away (LINK 3)
F#
  But I can't make it
              Bm           | A | % |
‘til you come home again to stay (LINK 2)


VERSE
  D
I can't get used to living here
         G                  D                   | A | % |
While my heart is broke, my tears are cried for you (LINK 2)
  D
I want you here to have and hold
       G                D               | A | % |
As the years go by, and we grow old and grey (LINK 2)

| D | % | G | D | A | A |
                  (LINK 2)
| D | % | G | D | A | A |
                  (LINK 2)


MIDDLE 8
F#
  Now you're expecting me
   Bm
To live without you (LINK 3)
F#
  But that's not something
         Bm              | A | % |
That I'm looking forward to (LINK 2)

VERSE
  D
I can't get used to living here
         G                  D                   | A | % |
While my heart is broke, my tears are cried for you (LINK 2)
  D
I want you here to have and hold
       G                D               [ A ]
As the years go by, and we grow old and grey (LINK 2)


INTERLUDE (see above)
| A | % | A | % |
| A | % | 


VERSE 
D
Every time I see your face
     G               D                | A | A |
It reminds me of the places we used to go (LINK 2)
    D                 
But all I've got is a photograph
      G                  D            | A | % |
And I realize you're not coming back anymore (LINK 2)


VERSE 
D
Every time I see your face
     G               D                | A | A |
It reminds me of the places we used to go (LINK 2)
    D                 
But all I've got is a photograph
      G                  D            | A | % |
And I realize you're not coming back anymore (LINK 2)

VERSE 
D
Every time I see your face
     G               D                | A | A |
It reminds me of the places we used to go (LINK 2)
    D                 
But all I've got is a photograph
      G                  D            | A | % |
And I realize you're not coming back anymore (LINK 2)

(repeat and fade)

            
            
Suggest correction
Creating personal tab
Creating personal tab
You can edit any tab online and save it as your Personal.

You can edit, replace or remove any tab part or add personal notes – all changes will be seen only by you.

Personal tabs can be accessed anytime from any device, even offline.
Learn more »
Give kudos to tab author, rate the tab!
1 2 3 4 5
comments
print report bad tab
guest
You may want to rate the tab now too:
select rating
Wanna post a correction for this tab? Suggest correction