Oops, an error
Loading. Please wait.

Rory And The Hurricanes Bass Tab

13 views 1 this week
no commentswrite comment
1 2 3 4 5
3 more votes to show rating
add to favorites
launch autoscroll
font size
0
reset
guitar tuner
Autoscroll
slow
fast
+/-
esc
set tempo
stop
Help us to improve Ultimate-Guitar.com Take our survey!
×
Author
Difficulty
intermediate
[Intro]
G|---------------------------------|---------------------------------|
D|---------------------------------|---------------------------------|
A|---------------------------------|------------------------0--------|
E|1-----------1---1----------------|1-----------1---3----------------|

G|---------------------------------|---------------------------------|
D|---------------------------------|----------------------3----------|
A|1-----------1---1----------------|3-----------3---3-/-5------------|
E|---------------------------------|---------------------------------|

G|---------------------------------|---------------------------------|
D|---------------------------------|---------------------------------|
A|---------------------------------|------------------------0--------|
E|1-----------1---1----------------|1-----------1---3----------------|

G|---------------------------------|---------------------------------|
D|---------------------------------|---------------------------------|
A|1-----------1---1----------------|3-----------3---3-------0--------|
E|---------------------------------|---------------------------------|

[Verse 1]
G|---------------------------------|---------------------------------|
D|---------------------------------|---------------------------------|
A|---------------------------------|------------------------0--------|
E|1-----------1---1----------------|1-----------1---3----------------|

G|---------------------------------|---------------------------------|
D|---------------------------------|----------------------3----------|
A|1-----------1---1----------------|3-----------3---3-/-5------------|
E|---------------------------------|---------------------------------|

G|---------------------------------|---------------------------------|
D|---------------------------------|---------------------------------|
A|---------------------------------|------------------------0--------|
E|1-----------1---1----------------|1-----------1---3----------------|

G|---------------------------------|---------------------------------|
D|---------------------------------|------------------------3--------|
A|1-----------1---1----------------|3-----------3---3----------------|
E|---------------------------------|---------------------------------|

[Pre-Chorus]
G|---------------------------------|---------------------------------|
D|5---5-------------------3--------|5---5----------------------------|
A|------------5---5----------------|--------5---5--------------------|
E|---------------------------------|----------------0---3---1---3----|

G|---------------------------------|---------------------------------|
D|---------------------------------|--------------------3------------|
A|---------------------------------|------------3---5-------5---7----|
E|1-----------1---1----------------|1--------------------------------|

G|---------------------------------|---------------------------------|
D|5--------------------------------|5---------------5-------5--------|
A|----------------5-------5--------|----5---5---7---------------0----|
E|------------3-------3------------|---------------------------------|

G|---------------------------------|---------------------------------|
D|---------------------------------|---------------------------------|
A|1---1---1---1---1---1---1---1----|3---3---3---3---3---3---3---3----|
E|---------------------------------|---------------------------------|

[Chorus]
G|---------------------------------|---------------------------------|
D|---------------------------------|---------------------------------|
A|---------------------------------|------------------------0--------|
E|1-----------1---1----------------|1-----------1---3----------------|

G|---------------------------------|---------------------------------|
D|---------------------------------|----------------------3----------|
A|1-----------1---1----------------|3-----------3---3-/-5------------|
E|---------------------------------|---------------------------------|

G|---------------------------------|---------------------------------|
D|---------------------------------|---------------------------------|
A|---------------------------------|------------------------0--------|
E|1-----------1---1----------------|1-----------1---3----------------|

G|---------------------------------|---------------------------------|
D|---------------------------------|---------------------------------|
A|1-----------1---1----------------|3-----------3---3-------3---\----|
E|---------------------------------|---------------------------------|

[Verse 2]
G|---------------------------------|---------------------------------|
D|---------------------------------|---------------------------------|
A|---------------------------------|------------------------0--------|
E|1-----------1---1----------------|1-----------1---3----------------|

G|---------------------------------|---------------------------------|
D|---------------------------------|----------------------3----------|
A|1-----------1---1----------------|3-----------3---3-/-5------------|
E|---------------------------------|---------------------------------|

G|---------------------------------|---------------------------------|
D|---------------------------------|---------------------------------|
A|---------------------------------|------------------------0--------|
E|1-----------1---1----------------|1-----------1---3----------------|

G|---------------------------------|---------------------------------|
D|---------------------------------|----------------------3----------|
A|1-----------1---1----------------|3-----------3---3-/-5------------|
E|---------------------------------|---------------------------------|

[Pre-Chorus]
G|---------------------------------|---------------------------------|
D|5---5-------------------3--------|5---5----------------------------|
A|------------5---5----------------|--------5---5--------------------|
E|---------------------------------|----------------0---3---1---3----|

G|---------------------------------|---------------------------------|
D|---------------------------------|--------------------3------------|
A|---------------------------------|------------3---5-------5--------|
E|1-----------1---1-------1--------|1---1---1------------------------|

G|---------------------------------|---------------------------------|
D|5--------------------------------|5---------------5---5---5--------|
A|----------------5-------5--------|----5---5---7---------------0----|
E|------------3-------3------------|---------------------------------|

G|---------------------------------|---------------------------------|
D|---------------------------------|---------------------------------|
A|1---1---1---1---1---1---1---1----|3--------------------------------|
E|---------------------------------|------------------------10---\---|

[Chorus]
G|---------------------------------|---------------------------------|
D|---------------------------------|---------------------------------|
A|---------------------------------|------------------------0--------|
E|1-----------1---1----------------|1-----------1---3----------------|

G|---------------------------------|---------------------------------|
D|---------------------------------|----------------------3----------|
A|1-----------1---1----------------|3-----------3---3-/-5------------|
E|---------------------------------|---------------------------------|

G|---------------------------------|---------------------------------|
D|---------------------------------|---------------------------------|
A|---------------------------------|------------------------0--------|
E|1-----------1---1----------------|1-----------1---3----------------|

G|---------------------------------|---------------------------------|
D|---------------------------------|---------------------------------|
A|1-----------1---1----------------|3---3---3---3---3-/-8---8---\----|
E|---------------------------------|---------------------------------|

G|---------------------------------|---------------------------------|
D|---------------------------------|---------------------------------|
A|8---8---8---8---8---8---8---8----|8---8---8-------8-------8--------|
E|---------------------------------|------------8-------8-------5----|

G|---------------------------------|---------------------------------|
D|---------------------------------|--------5------------------------|
A|---------------------------------|3---3-------3---3---3---3---3----|
E|6---6---6---6---6---6---6---6----|---------------------------------|

[Bridge]
G|------------------------5--------|---------------------------------|
D|----------------5----------------|5---5---5------------------------|
A|3-----------3/5------------------|----------------3---3---3---3----|
E|---------------------------------|---------------------------------|

G|---------------------------------|---------------------------------|
D|3-----------------------3--------|3---------------3---3------------|
A|------------3---3----------------|-------3---5------------3---2----|
E|---------------------------------|---------------------------------|

G|---------------------------------|---------------------------------|
D|----------------------------3----|----------------3----------------|
A|1-----------1---1----------------|1-----------1-----------1--------|
E|---------------------------------|---------------------------------|

G|---------------------------------|----------------8-------7--------|
D|---------------------------------|---------------------------------|
A|6-----------6---6----------------|6-------6---6/8------------------|
E|----------------------------6----|----6----------------------------|

G|5-----------5---5----------------|----------------5----------------|
D|--------------------5------------|---------------------------------|
A|------------------------6--------|3-----------3/5-----0---3--------|
E|---------------------------------|----------------------------0----|

G|---------------------------------|------------------------6--------|
D|---------------------------------|------------3-h-5----------------|
A|----------------------------3----|---------------------------------|
E|1-----------1---1----------------|1--------------------------------|

G|---------------------------------|---------------------------------|
D|8-----------8---8----------------|8-----------8---8---8------------|
A|----------------------------8----|---------------------------------|
E|---------------------------------|---------------------------------|

G|---------------------------------|---------------------------------|
D|8-------------------8---8--------|---------------------------------|
A|------------6-h-8----------------|------------------------8---\----|
E|---------------------------------|---------------------------------|

[Chorus]
G|---------------------------------|---------------------------------|
D|---------------------------------|---------------------------------|
A|---------------------------------|------------------------0--------|
E|1-----------1---1----------------|1-----------1---3----------------|

G|---------------------------------|---------------------------------|
D|---------------------------------|----------------------3----------|
A|1-----------1---1----------------|3-----------3---3-/-5------------|
E|---------------------------------|---------------------------------|

G|---------------------------------|---------------------------------|
D|---------------------------------|---------------------------------|
A|----------------------------3----|------------------------0--------|
E|1-----------1---1----------------|1-----------1---3----------------|

G|---------------------------------|---------------------------------|
D|---------------------------------|---------------------------------|
A|1-----------1---1----------------|3--------------------------------|
E|---------------------------------|------------------------3---0----|

[Verse 3]
G|---------------------------------|---------------------------------|
D|---------------------------------|---------------------------------|
A|---------------------------------|------------------------0--------|
E|1-----------1---1----------------|1-----------1---3----------------|

G|---------------------------------|---------------------------------|
D|---------------------------------|---------------------------------|
A|1-----------1---1----------------|3-----------3---3----------------|
E|---------------------------------|------------------------5---4----|

G|---------------------------------|---------------------------------|
D|---------------------------------|---------------------------------|
A|---------------------------------|------------------------0--------|
E|1-----------1---1----------------|1-----------1---3----------------|

G|---------------------------------|---------------------------------|
D|---------------------------------|------------------------3---4----|
A|1-----------1---1----------------|3---3---3---3---3---3------------|
E|---------------------------------|---------------------------------|

[Solo]
G|---------------------------------|---------------------------------|
D|3---3---3---3---3---3---3---/----|3---3---3---3---3---3---3---\----|
A|---------------------------------|---------------------------------|
E|---------------------------------|---------------------------------|

G|---------------------------------|---------------------------------|
D|---------------------------------|--------------------10--10--10---|
A|1---1---1---1---1---1---1---1----|3---3---3---3-/-8----------------|
E|---------------------------------|---------------------------------|

G|---------------------------------|---------------------------------|
D|---------------------------------|---------------------------------|
A|---------------------------------|---------------------------------|
E|--------1---1---1---1---1---1----|1---1---1---1---1---1---1---1----|

G|---------------------------------|---------------------------------|
D|---------------------------------|----------------10---------------|
A|--------1---1---1---1---1---1----|3-----/-----8-------8---\--------|
E|---------------------------------|---------------------------------|

G|---------------------------------|------------------------5--------|
D|---------------------------------|---------------------------------|
A|3---3---3---3---3---3---3---3----|3---3---3---3---3---3-------3----|
E|---------------------------------|---------------------------------|

G|---------------------------------|----------------5----------------|
D|---------------------------------|--------------------5---5---5----|
A|3---3---3---3---3---3---3---3----|3---3---3---3--------------------|
E|---------------------------------|---------------------------------|

G|---------------------------------|---------------------------------|
D|---------------------------------|---------------------------------|
A|3---3---3---3---3---3---3---3----|3---3---3---3---3---3---3---3----|
E|---------------------------------|---------------------------------|

G|5--------------------------------|5---5---5---5---5---5------------|
D|---------------------------------|---------------------------------|
A|----3---3---3---3---3---3---/--5-|------------------------3--------|
E|---------------------------------|---------------------------------|

[Chorus]
G|---------------------------------|---------------------------------|
D|---------------------------------|---------------------------------|
A|---------------------------------|------------------------0--------|
E|1-----------1---1----------------|1-----------1---3----------------|

G|---------------------------------|---------------------------------|
D|---------------------------------|----------------------3----------|
A|1-----------1---1----------------|3-----------3---3-/-5------------|
E|---------------------------------|---------------------------------|

G|---------------------------------|---------------------------------|
D|---------------------------------|---------------------------------|
A|---------------------------------|------------------------0--------|
E|1-----------1---1----------------|1-----------1---3----------------|

G|---------------------------------|---------------------------------|
D|---------------------------------|---------------------------------|
A|1-----------1---1----------------|3-----------3---3-------3--------|
E|---------------------------------|----------------------------3----|

G|---------------------------------|---------------------------------|
D|---------------------------------|---------------------------------|
A|---------------------------------|------------------------0--------|
E|1-----------1---1----------------|1-----------1---3----------------|

G|---------------------------------|---------------------------------|
D|---------------------------------|---------------------------------|
A|1-----------1---1----------------|3-----------3---3---/---8---\----|
E|---------------------------------|---------------------------------|

G|---------------------------------|---------------------------------|
D|---------------------------------|---------------------------------|
A|---------------------------------|------------------------0--------|
E|1-----------1---1----------------|1-----------1---3----------------|

G|---------------------------------|---------------------------------|
D|---------------------------------|---------------------------------|
A|1-----------1---1----------------|3-----------3---3---/---8---\----|
E|---------------------------------|---------------------------------|

G|---------------------------------|---------------------------------|
D|---------------------------------|---------------------------------|
A|---------------------------------|------------------------0--------|
E|1-----------1---1----------------|1-----------1---3----------------|

G|---------------------------------|---------------------------------|
D|---------------------------------|---------------------------------|
A|1-----------1---1----------------|3-----------3---3----------------|
E|---------------------------------|---------------------------------|

G|---------------------------------|---------------------------------|
D|---------------------------------|---------------------------------|
A|---------------------------------|---------------------------------|
E|1--------------------------------|---------------------------------|


************************************

| /  Slide up
| \  Slide down
| h  Hammer-on

************************************
Suggest correction
Give kudos to tab author, rate the tab!
1 2 3 4 5
comments
print report bad tab
guest
You may want to rate the tab now too:
select rating
Wanna post a correction for this tab? Suggest correction