Oops, an error
Loading. Please wait.

Abducted Tab

version 1
version 1

Whole song

Interactive

3,529 views 6 this week
1 commentread comment
1 2 3 4 5
x 3
add to favorites
launch autoscroll
font size
0
reset
how to read this tab
guitar tuner
Autoscroll
slow
fast
+/-
esc
set tempo
stop
Help us to improve Ultimate-Guitar.com Take our survey!
×
Author
Difficulty
Tuning
intermediate
A E A D F# B
Here is Abducted by one of my favorite bands, Rings of Saturn.Tabbed for 6-string!!

Song: Abducted
Album: Embryonic Anomaly
Artist: Rings of Saturn

Tuning: Drop A


Intro (its not really a guitar,but i kinda figured it out)
|------------------------------------------------|
|---------------------------21-20-21-22-21-20-21-|
|-21-20-21-22-21-20-21---------------------------|
|------------------------------------------------|
|------------------------------------------------|
|------------------------------------------------|

|------------------------------------21----22----|
|---------------------------21-20-21-------------|
|-21-20-21-22-21-20-21---------------------------|
|------------------------------------------------|
|------------------------------------------------|
|------------------------------------------------|

repeat as needed

then,

Blasphemous.....
|------------------------------------------------------------|
|------------------------------------------------------------|
|------------------------------------------------------------|
|---------------------------------can't do sweeps here on 6--|string
|-----(5)(5)(5)(5)-------------------------------------------|(4)(4)(4)(4)
|-1111------------1111---------------------------------------|
pm....            ....

Man made.....Abomination.....Born!!!!!

Creating something thats never been made before
|------------------------------------|
|------------------------------------|
|----------6-8----------6-8----------|
|------7-9----------7-9----------7-9-|
|-8-10---------8-10---------8-10-----|
|------------------------------------|
pm. .          . .          . .

|-------------------------------|
|---------------------------7---|
|----------6-8----------6-8-9---|
|------7-9----------7-9---------|
|-8-10---------8-10-------------|
|-------------------------------|
pm. .          . .

|------------------------------------|
|------------------------------------|
|----------6-8----------6-8----------|
|------7-9----------7-9----------7-9-|
|-8-10---------8-10---------8-10-----|
|------------------------------------|
pm. .          . .          . .

|------------------|
|----------7-----6-|
|----------9-----8-|
|------7-9---7-9---|
|-8-10-------------|
|------------------|
pm. .

repeat as needed

Do not know if you can do the ascending/ descending part on 6-string. haven;t tried it yet.

Here is cool riff afterwards though...

|---------------------------------------------------------------|
|---------------------------------------------------------------|
|---------------------------------------------------------------|
|---------------------------------------------------------------|
|-5---7---8---4-----6-6h7-5---7---8----------7h10p7------8h10p8-|
|--7-5-8-7-8-7-5-4-5-4-----7-5-8-7-8-7-7h10p7------8h10p8-------|
pm . . . . . . . . . .     . . . . . .

|-------------------------------------------------------|
|-------------------------------------------------------|
|-------------------------------------------------------|
|------------------------------------------12--13-------|
|-5---7---8---4-----6-6h7-5---7---8------11--11--12--12-|
|--7-5-8-7-8-7-5-4-5-4-----7-5-8-7-8-7-10----------11---|
pm . . . . . . . . . .     . . . . . .

|---------------------------------------------------|
|---------------------------------------------------|
|---------------------------------------------------|
|---------------------------------------------------|
|--------4-------------4-----7---8---10---8---7-7h8-|
|-0-4-6-7-7-6-4-0-4-6-7-7-6-4-8-7-8-7--8-7-8-7-8----|
pm. . . . . . . . . . . . . . . . . .  . . . . .

|---------------------------------------------------------------------|
|----------------------------------------10-9~------------------------|
|--------------------------------------13-----------------------------|
|------------------------------8-----11-------11h12p11----------------|
|-12----13----10-10-10-8-10-12-----10-----------------12h13p12--------|
|---10-8--10-8--8--8--8----------11---------------------------11p10~~-|
pm  .  .  .  .  .  .  .

repeat as needed

tHe rest of the song is very easy to learn! just try and ibet you'll get it.
Suggest correction
Give kudos to tab author, rate the tab!
1 2 3 4 5
comments
print report bad tab
1 comment total.
0 reply
metalhead601 208 Apr 04, 2015 10:47 PM

Lack of accuracy. Clearly wrong. they use 8 strings, all out not accurate at all. why do i need twenty words? that is now all.

guest
You may want to rate the tab now too:
select rating
Wanna post a correction for this tab? Suggest correction