Oops, an error
Loading. Please wait.

Abucted Tab

1,881 views 6 this week
2 commentsread comments
1 2 3 4 5
x 3
add to favorites
launch autoscroll
font size
0
reset
how to read this tab
guitar tuner
Autoscroll
slow
fast
+/-
esc
set tempo
stop
Help us to improve Ultimate-Guitar.com Take our survey!
×
Author
Difficulty
Tuning
advanced
A# F A# D# G C
-This song is insane as fuck! Its very hard. Take patience when learning this. I can bet 
you'll need it.

Song: Abducted
Artist: Rings Of Saturn
Album: Embryonic Anomaly

Tuning: Drop A# (A# F A# D# G C)
Difficulty: Advanced

This is my version of how the song goes. It ssounds pretty good to me. All tabbed out by
ear. This is a tab for 6 string, not 7, so some parts may not be identical to the song.

=============================================================================Intro. (X2)
|-------------------------------|
|-------------------------------|
|-----------5555---------5555---|
|-----------6666---------6666---|
|---2222---------2222-----------|
|---3333---------3333-----------|
Pm . . . .            . . . .

                                  T.  T.                                               T.
|-----------------9h13-1717p13p9---------------------9h13-17p13p9-----------------------------|
|--------------12------------------------12--------------12--------------------12-------------|
|-----------11-----------------------------11---------11--------------------------11----------|
|--------12-----------------------------------12---12--------------------------------12-------|
|-9h13------------------------------------------13--------------------------------------13p9--|
|---------------------------------------------------------------------------------------------|

|-------------------------------|
|-------------------------------|
|-----------5555---------5555---|
|-----------6666---------6666---|
|---2222---------2222-----------|
|---3333---------3333-----------|
Pm. .  . .            . . . .

                                     T.
|-------------------9h13-17p13p9------------19-----------------------21--------|
|---------------12---------------------12------------18----------------20------|
|------------11----------------------------11------------20---------21---------|
|--------12------------------------------------12------------21-21-------------|
|-9h13-------------------------------------------------------------------------|
|------------------------------------------------------------------------------|

=============================================================================

Verse(x4)
|-------------------------------------------------------------------------------|
|-------------------------------------------------------------------------------|
|----------------------5h7h9----------------------5h7h9-------------------------|
|-------------5h7h8----------------------5h7h8----------------------5h7h8-------|
|-8h10h11-------------------8h10h11------------------8h10h11--------------------|
|-------------------------------------------------------------------------------|

|-------------------------------------------------------------------------------------|
|-------------------------------------------------------------------------------------|
|----------------------5h7h9-----------------------5h7h9---------------9--------------|
|-------------5h7h8-----------------------5h7h8----------------------13---------------|
|-8h10h11-------------------8h10h11-------------------8h10h11-------------------------|
|-------------------------------------------------------------------------------------|

-figure out for yourself the second rep. The first,thrid, and fourth reps are as listed above.

=============================================================================

Descending/Ascending scale(x2)

|-19p17p16-----------------------------------------------|
|---------------18p16p15---------------------------------|
|-----------------------------17p15p14-------------------|
|-------------------------------------------16p14p13-----|
|--------------------------------------------------------|
|--------------------------------------------------------|

---------------------------------------------------16h18--|
-------------------------------------15h17h18-------------|
-----------------------14h16h17---------------------------|
---------13h15h16-----------------------------------------|
-12h14h15-------------------------------------------------|
----------------------------------------------------------|

                         | on second rep
|-19p17p16-----------------------------------------------------------------------18-|-19------|
|---------------18p16p15-------------------------------------------------------------|--------|
|-----------------------------17p15p14-----------------------------------------------|--------|
|-------------------------------------------16p14p13--------------13h15h16-----|--------------|
|---------------------------------------------------------12h14h15-------------------|--------|
|------------------------------------------------------------------------------------------|--|

That's all for now. Enjoy and goodluck. I'll post the rest up later.
Suggest correction
Give kudos to tab author, rate the tab!
1 2 3 4 5
comments
print report bad tab
2 comments total.
0 reply
Marcus 90 2,623 Jun 10, 2011 12:53 PM

yes finally, thank you very much for posting this tab :)

0 reply
perishalive 37 Apr 30, 2012 12:52 PM

This tab is my old incorrect tab on my old account metalkid17. I'll be posting the correct tabs really soon:)

guest
You may want to rate the tab now too:
select rating
Wanna post a correction for this tab? Suggest correction