Oops, an error
Loading. Please wait.

Immaculate Order Tab

version 1
version 1

Whole song

Interactive

94 views 12 this week
no commentswrite comment
1 2 3 4 5
3 more votes to show rating
add to favorites
launch autoscroll
font size
0
reset
how to read this tab
guitar tuner
Autoscroll
slow
fast
+/-
esc
set tempo
stop
Help us to improve Ultimate-Guitar.com Take our survey!
×
Author
[Guitar 1]

e|------------------------------------------------------------------------------------------------|
B|------------------------------------------------------------------------------------------------|
G|------------------------------------------------------------------------------------------------|
D|-------11----11------8--12--8-----------9------8---8---9------8--12--8--------------------------|
A|-4----------------------------12--9--12---6--5---5---5---5--5----------12--9--12----------------|
E|---8-7---8-7---8-4-5----------------------------------------------------------------------------|(x4)


[Guitar 2]

e|------------------------------------------------------------------------------------------------|
B|------------------------------------------------------------------------------------------------|
G|------------------------------------------------------------------------------------------------|
D|--------15------15------12--16--12------------13-------12--12---13------12--15--12--------------|
A|-8---------------------------------16--13--16----10--9---9----9----9--9------------16--13--16---|
E|---12-11--12--11--12-8-9------------------------------------------------------------------------|(x2)


[Guitar 1]

e|---------------------------------|     e|-----------------------------------------------------------|
B|---------------------------------|     B|-----------------------------------------------------------|
G|-9---9---9---9---8---8---8---8---|(x4) G|-9------8---8---9------8--12--8----------------------------|
D|---6---6---6---6---5---5---5-----|     D|---6--5---5---5---5--5----------12--9--12------------------|
A|---------------------------------|     A|-----------------------------------------------------------|
E|---------------------------------|     E|-----------------------------------------------------------|


[Guitar 2]

e|----------------------------------------------------------------------------------------------------|
B|----------------------------------------------------------------------------------------------------|
G|-8---------------7--------------8-------------------------------------------------------------------|
D|-6---------------5--------------6---13-------12---12---13---12--15--12------------------------------|
A|-6---------------5--------------6------10--9---9----9-----9------------16--13--16-------------------|
E|----------------------------------------------------------------------------------------------------|


e|------------------------------------------------------------------------------------------------|
B|------------------------------------------------------------------------------------------------|
G|-8---------------11-------------8---------------------------------------------------------------|
D|-6---------------9--------------6---13-------12---12---13---12--15--12--------------------------|
A|-6---------------9--------------6------10--9---9----9-----9------------16--13--16---------------|
E|------------------------------------------------------------------------------------------------|(x4)
Suggest correction
Give kudos to tab author, rate the tab!
1 2 3 4 5
comments
print report bad tab
guest
You may want to rate the tab now too:
select rating
Wanna post a correction for this tab? Suggest correction