Oops, an error
Loading. Please wait.

Sfiorivano Le Viole bass

1,438 views 3 this week
no commentswrite comment
1 2 3 4 5
2 more votes to show rating
add to favorites
×
Save as Personal and add changes to this tab that will be seen only by you. Learn more ›
×
You can save this tab as Personal to edit and correct it or add notes. All changes will be seen only by you. Learn more »
launch autoscroll
font size
0
reset
guitar tuner
edit
Autoscroll
slow
fast
+/-
esc
set tempo
stop
Author
Difficulty
Title:                  Sfiorivano le viole     
Author:                 Rino Gaetano            
Tuning:                 standard
Tabbed by:              Diego Damo (damo.diego_AT_gmail.com)


"Sfiorivano le viole",a cute and ironic song issued in 1976 by italian 
songwriter Rino Gaetano (1950-1981). 

Bass line is not very hard to get on,it's basically the root notes of the 
chords,with chromaticisms to link them togheter during almost the full song.

In order to learn it well,regardless of the style you want to give it,
listen WELL to the right timing of the notes,for they are very short.

-------------------------------------------------------------------------------
MIND WELL: This is not the exactly riff of the original song,but i like to 
           play it this way to get it a little more "cooler". To play it the
           original way just remove the chromaticism G-G#-A from D string.
-------------------------------------------------------------------------------




MAIN RIFF:
(00:00 - 00:49)
G|---------------------------------------------------------------------------|
D|5-5--5-5-5---5-6-7--7--7-7-7---7-6-----------------------------------------|
A|---5------5----------7-------7---------------------------------------------|
E|---------------------------------------------------------------------------|


CHORUS:
(00:50 - 01:00)
G|------------------------|--------------------------------------------------|
D|2-2--2-2--5-7-7---------|---9----9---7-7-----------------------------------|
A|---2----2------7-7-0----|7-7--7-7---7---7--7-0--0-0----7-6-----------------|
E|------------------------|--------------------------------------------------|


again go with the MAIN RIFF + CHORUS from 01:01 to 02:51,then there is a


VARIATION
(02:52 - 04:15)

You can play that riff in two ways,as you prefer. I prefer "A",coz sounds 
better to me.
Actually this is not the original riff,but i find it effective and simple 
to play at the same time.

                A                                B

G|-------------------------------|-------------------------------|
D|-------------------------------|-------------------------------|
A|7s----5s-5-4-2s-2-0------------|7s----5s-5-4-2s-2--------------|
E|--5s----------------3s-3-5s-5s-|--5s--------------0-3s-3-5s-5s-|


After this play the MAIN RIFF until music fades out,and you're done.


            
            
Suggest correction
Creating personal tab
Creating personal tab
You can edit any tab online and save it as your Personal.

You can edit, replace or remove any tab part or add personal notes – all changes will be seen only by you.

Personal tabs can be accessed anytime from any device, even offline.
Learn more »
Give kudos to tab author, rate the tab!
1 2 3 4 5
comments
print report bad tab
guest
You may want to rate the tab now too:
select rating
Wanna post a correction for this tab? Suggest correction