Oops, an error
Loading. Please wait.

Atlantis Fire In The Distant North Tab

754 views 1 this week
no commentswrite comment
1 2 3 4 5
please rate
add to favorites
launch autoscroll
font size
0
reset
how to read this tab
guitar tuner
Tab Pro tools
  • play this tab
  • loop segment
  • change instrument
  • show fretboard
  • metronome
×
Best way to learn
"Atlantis Fire In The Distant North"
Autoscroll
slow
fast
+/-
esc
set tempo
stop
Rinoa - Atlantis & Fire In The Distant North                                       
By: The_Architect
My fave band ever so ive tabbed what i kno there stuff is amazing  simple but beutifull

www.myspace.com/rinoauk
Pre-order the Bossk/Rinoa split now on www.eyesofsound.com


Atlantis
00.00 - 09.00
C# |  ---0--------------------------------------------------|
G# |  ---0------------------let it ring---------------------|
E  |  ---0--------------------------------------------------|
B  |  ---2--------------------------------------------------|
F# |  ---2--------------------------------------------------|
C# |  ---0--------------------------------------------------|


09.00 - 0.53   - These are the chords you can figure out the rythem
C# |  -----------------------------------------------|
G# |  -----------------------------------------------|
E  |  ---7---------7--------5---------5--------4-----|
B  |  ---x---------x--------x---------x--------x-----|
F# |  ---5---------5--------3---------3--------2-----|
C# |  ---7---------6--------1---------4--------3-----|

00.53 - 0.58
C# |  -------------0-------------------------|
G# |  -------------0-------------------------|
E  |  ---------------------------------------|
B  |  ---------------------------------------|
F# |  ---2-----------------------------------|
C# |  ---0------------------3----5---2-------|

00.58 - 01.03
C# |  ---------------------------------0----------------|
G# |  ---------------------------------0----------------|
E  |  --------------------------------------------------|
B  |  --------------------------------------------------|
F# |  ---2-------2------2-------------------------------|
C# |  ---0-------0------0--------------------3---5---2--|

01.04 - 01.09
C# |  ---------------------------------0-------------------------|
G# |  ---------------------------------0-------------------------|
E  |  -----------------------------------------------------------|
B  |  -----------------------------------------------------------|
F# |  ---2-------2------2----------------------------------------|
C# |  ---0-------0------0------------------------------3------2--|

01.09 - 01.14
C# |  ---------------------------------0---------------------------|
G# |  ---------------------------------0---------------------------|
E  |  -------------------------------------------------------------|
B  |  -------------------------------------------------------------|
F# |  ---2-------2------2-------------------------------2-----2----|
C# |  ---0-------0------0------------------------3------0-----0----|
-
01.09 - 01.14  - Im not 100% on this next bit but i winged it.
C# |  --------------------------------------------------------|
G# |  --------------------------------------------------------|
E  |  --------------------------------------------------------|
B  |  ------------------1-------------------------------------|
F# |  --------------------------------------------------------|
C# |  ---0---1----0------------4-----3----1-----0-------------|

C# |  --------------------------------------------------------|
G# |  --------------------------------------------------------|
E  |  --------------------------------------------------------|
B  |  -------------------3------------------------------------|
F# |  --------------------------------------------------------|
C# |  ---0----1----0----------4-----3----1-----0--------------|

C# |  --------------------------------------------------------|
G# |  --------------------------------------------------------|
E  |  --------------------------------------------------------|
B  |  -------------------0------------------------------------|
F# |  --------------------------------------------------------|
C# |  ---0-----1---0------------4-----3----1-----0------------|

C# |  --------------------------------------------------------|
G# |  --------------------------------------------------------|
E  |  --------------------------------------------------------|
B  |  -------------------1------------------------------------|
F# |  --------------------------------------------------------|
C# |  ---0-----1---0------------4-----3----1-----0------------|

C# |  --------------------------------------------------------|
G# |  --------------------------------------------------------|
E  |  --------------------------------------------------------|
B  |  -------------------3------------------------------------|
F# |  --------------------------------------------------------|
C# |  ---0-----1---0------------4-----3----1-----0------------|

C# |  --------------------------------------------------------|
G# |  --------------------------------------------------------|
E  |  --------------------------------------------------------|
B  |  --------------------------------------------------------|
F# |  ---------------------------3--------5-------------------|
C# |  ---0------1---0------------1--------3-------------------|

C# |  --------------------------------------------------------|
G# |  --------------------------------------------------------|
E  |  --------------------------------------------------------|
B  |  --------------------------------------------------------|
F# |  ----------------------------3--------5------------------|
C# |  ---0-------1---0------------1--------3------------------|

01.34  - 01.44.
C# |  -----------------------------------------------------------------|
G# |  -----------------------------------------------------------------|
E  |  -----------------------------------------------------------------|
B  |  -----------------------------------------------------------------|
F# |  -----------------------------------------------------------------|
C# |  -7-7-7-7-7-7-7-7-7-7-7-7-7-7-7-7-6-6-6-6-6-6-6-6-6-6-6-6-6-6-6-6-|

C# |  -----------------------------------------------------------------|
G# |  -----------------------------------------------------------------|
E  |  -----------------------------------------------------------------|
B  |  -----------------------------------------------------------------|
F# |  -----------------------------------------------------------------|
C# |  ---1-1-1-1-1-1-1-1-1-1-1-1-1-4-4-4-3-3-3-3-3-3-3-0--let it ring--|

01.44  - 02.27
C# |  ---------------------------------------------------------|
G# |  ---------------------------------------------------------|
E  |  ---7--------7--------5---------5--------4----------------|
B  |  ---x--------x--------x---------x--------x----------------|
F# |  ---5--------5--------3---------3--------2----------------|
C# |  ---7--------6--------1---------4--------3----------------|

Ok this si where ive gotten two and havnt done the rest cause i dont kno it but heres 
to pluc if you still wanna play along

C# |  ------------------------------------------------------------|
G# |  ------------------------------------------------------------|
E  |  ------------------------------------------------------------|
B  |  ------------------------------------------------------------|
F# |  ---2----2-----0---0-----------------------------------------|
C# |  --------------------------3---3-----0---0-------------------|

Fire in the Distant north
Only done the intro to this as havnt heard the whole song yet.

C# |  ----------------------------8----------------7-----|
G# |  ----------0--------------------0-------------------|
E  |  --------2--------------------------------4---------|
B  |  -----3-------2---------7--------------5------------|
F# |  ---------------------------------------------------|
C# |  ---------------------------------------------------|

just keep playing this clean the the same again in distorted
thats all i got for now peeps im working on between the pillars full song coming soon.
comments
We did not receive enough feedback on this tab! Please rate:
print report bad tab
1 2 3 4 5
I want to post or [tab]
guest
You may want to rate the tab now too:
select rating
Please do not post tabs as comments. Select "correction" instead!