Oops, an error
Loading. Please wait.

Todo Estaba Bien tab

version 2
version 2

Whole song

by Rio
49 views 1 this week
no commentswrite comment
1 2 3 4 5
3 more votes to show rating
add to favorites
×
Save as Personal and add changes to this tab that will be seen only by you. Learn more ›
×
You can save this tab as Personal to edit and correct it or add notes. All changes will be seen only by you. Learn more »
launch autoscroll
font size
0
reset
how to read this tab
guitar tuner
edit
Autoscroll
slow
fast
+/-
esc
set tempo
stop
Esta es una canciòn algo viejita, pero està muy buena, sobre todo por el juego
de acordes que hay en la canciòn. Saludos.

Intro: C - Em - Gm - C - F - G - F - [F-G-C]
e|-------------------------------------------------------------
B|-------------------------------------------------------------
G|-------------------------------------------------------------
D|-3/5-5-3-3-2-2.-3/5.-5-5-5-5-5-5/7-5-3/-2-2-3----0-0-0-2-5.--
A|----------------------------------------------3--------------
E|-------------------------------------------------------------

e|---------------------------------------|
B|---------------------------------------|
G|---------------------------------------|
D|-5-5-7-9.-9-9/10-9-7-5/-5-3-2-3-5-2----|
A|------------------------------------3--|
E|---------------------------------------|

C                     Em
Comenzamos este juego tú y yo
Gm                  C            F
yo porque no tenía nada que perder
G                          F    [F  -  G  -  C] G  (Riff 1)
cuando yo te encontré tú ya tenías otro a quien amar.

C                            Em
Cada instante te haces más dueña de mi
Gm                C            F
cada locura que tú hagas es por mi
    G                       F            [F  - G  -  C] A (Riff 2)
y todo sigue igual, y poco a poco nos dejamos llevar.

Riff 1                        Riff 2
e|---------------------|      e|----------------------------------|
B|---------------------|      B|-------------------------5-8-6----|
G|-----2-2-----4-4-----|      G|-----------------5/6-6-6-------7--|
D|-2/3-----3/5------2--|      D|-6/7.-7-7-7-7-7-------------------|
A|------------------3--|      A|----------------------------------|
E|---------------------|      E|----------------------------------|

Dm              Bb             Am
Yo sé que esperas algo más de mi
    Gm              Dm      Bb       G
yo nunca lo olvidé,    quiero olvidarte.

C                        Em
Tú no haz hecho tanto para yo cambiar
Gm                 C            F
quizás temes no volverme a encontrar
    G                     F           [F  - G  - C]  A
tú sabes cómo soy y te imaginas que nunca cambiaré.

Dm             Bb             Am
Tú siempre, esperando más de mi
    Gm             Dm   Bb              G    Bb            C
ninguno se verá,    debo olvidarte, voy a marcharme.

Coro
F           Bb    G            F - (Dm)
Todo estaba bien, pero llegaste tú
Bb               C
y empecé a soñar y a sentir
F          Bb         G            F - (Dm)
Todo estaba bien, pero llegaste tú
Bb                  G
y empecé a pensar en ti.

Solo: C - Em - Gm - C - F - G - F - [F-G-C] - [F-G-C]
e|-----------------------------------------------------------------------
B|-----------------------------------------------------------------------
G|-----------------------------------------------------------------------
D|-3/5-5-5-5-5-5-5-5-3-3-2.-3/5-5-5-5-5-5-5/7-5-3-2-2-2-3-------------5--
A|--------------------------------------------------------3---5-5-5-7----
E|-----------------------------------------------------------------------

                                                  |--C--|
e|-----------------------------------------------------------------0-|
B|----------------------------------------------------------------1--|
G|------------------------------------------------2-2-----4-4----0---|
D|----------5--5-7-5-3-2--2-3-2---2-3-2--2----2/3-----3/5-------2----|
A|-5-5-5-7---------------------------------3-------------------3-----|
E|-------------------------------------------------------------------|

C                           Em
Cada instante te haces más dueña de mi
Gm                  C            F
cada locura que tu hagas es por mi
    G                        F            [F  - G  - C]      A
y todo sigue igual, y poco a poco nos dejamos llevar.

Dm                    Bb             Am
Yo sé que esperas algo más de mi
    Gm               Dm      Bb        G       Bb            C
yo nunca lo olvidé,       debo olvidarte, voy a marcharme.

Coro

F            Bb   G            F - (Dm)
Todo estaba bien, pero llegaste tú
       Bb      C
y empecé a soñar...

Coro


     MaKe SoMeBoDy HaPPy
 ·=========================·
 |   ;)  ¤«L·u·ï·S»¤  :)   |
 | luis_reque@  |
 ·=========================·

            
            
Suggest correction
Creating personal tab
Creating personal tab
You can edit any tab online and save it as your Personal.

You can edit, replace or remove any tab part or add personal notes – all changes will be seen only by you.

Personal tabs can be accessed anytime from any device, even offline.
Learn more »
Give kudos to tab author, rate the tab!
1 2 3 4 5
comments
print report bad tab
guest
Wanna post a correction for this tab? Suggest correction