Oops, an error
Loading. Please wait.

Condenado tab

by RIP
286 views 1 this week
no commentswrite comment
1 2 3 4 5
3 more votes to show rating
add to favorites
×
Save as Personal and add changes to this tab that will be seen only by you. Learn more ›
×
You can save this tab as Personal to edit and correct it or add notes. All changes will be seen only by you. Learn more »
launch autoscroll
font size
0
reset
how to read this tab
guitar tuner
edit
Autoscroll
slow
fast
+/-
esc
set tempo
stop
                        (estrofa riff 1)
 Intro:                 (estribillo riff 2)

    G          C     D       G

E:--3-----3-------------  x6
B:--3------3------------
G:--0-------0----0---0--
D:--0-----------2---4---
A:--2----------3---5----
E:--3--3----------------

e:---------------------------------------
B:------------------------------5----7---
G:--4--0---7b-7--7b-7---4--0---5-5--7-7--
D:---------------------------------------
A:---------------------------------------
E:---------------------------------------

e:----------------0------------5--5-5-5-5---7--7-7-7-7-
B:---4--0---7b-7----7---4--0---5--5-5-5-5---7--7-7-7-7-
G:-----------------------------------------------------
D:-----------------------------------------------------
A:-----------------------------------------------------
E:-----------------------------------------------------
                                            (riff 1)
 G                  C                D
En la celda paso mis ultimas horas de vida

 G                      C                 D       D
La justicia una vez mas un crimen cometerá

 G                      C                   D
Sera un largo amanecer sera la ultima tortura

 G                     C                     D
El sol volvera a salir para verme al fin morir

 Riff 1:
   G                C         D
e:----------------------------------
B:----------------------------------
G:--------------------5-5---5--7-7--
D:--------------------3-3---3--5-5--
A:--5-5---5--5-5---5----------------
E:--3-3---3--3-3---3----------------
                                               (riff 2)
    D           G        F       C
 Me quieren asesinar...         mañana

    D           G        F        C
 Me quieren asesinar...         mañana

    D
 Me quieren asesinar  Riff 1 x2

 Riff 2:
    G                  F
D:------------------------------------
A:--5-5--5---5-5--5---3-3--3---3-3--3-
E:--3-3--3---3-3--3---1-1--1---1-1--1-

    C                 D
D:--5-5--5---5-5--5---7-7--7---7-7--7-
A:--3-3--3---3-3--3---5-5--5---5-5--5-
E:------------------------------------

  G                  C                    D
Yo no me arrepentire de nada de lo que echo

  G                  C                    D     D
No necesito el perdon de la santa religion

  G                  C                    D
Ahora veo de verdad como mi vida se aleja

  G                     C                      D
Para ellos muero mañana para mi estoy muerto ya

   D            G         F       C
 Me quieren asesinar...         mañana

   D            G         F        C
 Me quieren asesinar...         mañana

   D                            D
 Me quieren asesinar...  me quieren asesinar
                                                   G     F     C     D
  Kintas en la kinta cuerda:                   D:--12----10----5-----7--
                                               A:--10----8-----3-----5--
 G GGG G GGG    F FFF F FFF                    E:-----------------------
 C CCC C CCC    D DDD D DDD  G (sexta cuerda)

e:------------------------------------------
B:-----------------0-------------5----7-----
G:--4--0---7b-7------7---4--0---5-5--7-7----
D:------------------------------------------
A:------------------------------------------
E:------------------------------------------

E:----------------  -----------5--5-5-5-5---7--7-7-7-7-
B:--4--0---7b-7--7b-7---4--0---5--5-5-5-5---7--7-7-7-7-
G:-----------------------------------------------------
D:-----------------------------------------------------
A:-----------------------------------------------------
E:-----------------------------------------------------

 G                  C                D
En la celda paso mis ultimas horas de vida

 G                      C                 D       D
La justicia una vez mas un crimen cometerá

 G                     C                    D
Sera un largo amanecer sera la ultima tortura

 G                     C                     D
El sol volvera a salir para verme al fin morir

   D            G         F       C
 Me quieren asesinar...         mañana

   D            G         F        C
 Me quieren asesinar...         mañana

   D                            D           G
 Me quieren asesinar...  me quieren asesinar

    G          C     D       G

E:--3-----3-------------  x4
B:--3------3------------
G:--0-------0----0---0--
D:--0-----------2---4---
A:--2----------3---5----
E:--3--3----------------
                                       FIN


 El estribillo tiene un estructura rara pero escuchar

 la cancion y lo pillareis rapido, disfrutarla!

  (Vazquezvill_69@

            
            
Suggest correction
Creating personal tab
Creating personal tab
You can edit any tab online and save it as your Personal.

You can edit, replace or remove any tab part or add personal notes – all changes will be seen only by you.

Personal tabs can be accessed anytime from any device, even offline.
Learn more »
Give kudos to tab author, rate the tab!
1 2 3 4 5
comments
print report bad tab
guest
Wanna post a correction for this tab? Suggest correction