Oops, an error
Loading. Please wait.

Punk Girl Punk Boy Tab

248 views 1 this week
no commentswrite comment
1 2 3 4 5
accurate
x 3
add to favorites
launch autoscroll
font size
0
reset
how to read this tab
guitar tuner
Tab Pro tools
  • play this tab
  • loop segment
  • change instrument
  • show fretboard
  • metronome
×
Best way to learn
"Punk Girl Punk Boy"
Autoscroll
slow
fast
+/-
esc
set tempo
stop
Contributor
Song: Punk Girl, Punk Boy
Band: The Riptides
Album: Appetite for Rejection
Label: Goblin Records
Tabbed by: Donahue2

Tuning: Standard

INTRO:
e|-----------------------------------|
B|-----------------------------------|
G|------------------555555--7xxxxx---|
D|--555555--222222--555555--7xxxxx---|
A|--555555--222222--333333--5xxxxx---|
E|--333333--000000-------------------|

VERSE1:
e|-------------------------------------|
B|-------------------------------------|
G|------------------555555--777777-----|X3
D|--555555--222222--555555--777777-----|
A|--555555--222222--333333--555555-----|
E|--333333--000000---------------------|

(Then on fourth time):
e|--------------------------------------|
B|--------------------------------------|
G|------------------555555-7xxxxx-------|
D|--555555--222222--555555-7xxxxx-------|
A|--555555--222222--333333-5xxxxx-------|
E|--333333--000000----------------------|
"Hey, Punk Girl.  I like your stockings with the holes.
 Hey, Punk Boy.  I dig the peircings in your nose.
 I know you've got a boyfriend, but he's a stupid jock,
 So let's get into my car and drive to makeout rock."

VERSE2:
e|-----------------------------------|
B|-----------------------------------|
G|------------------555555--777777---|X3
D|--555555--222222--555555--777777---|
A|--555555--222222--333333--555555---|
E|--333333--000000-------------------|

(Then on fourth time):
e|---------------------------------|
B|---------------------------------|
G|------------------555555--7-7-7--|
D|--555555--222222--555555--7-7-7--|
A|--555555--222222--333333--5-5-5--|
E|--333333--000000-----------------|
"Hey, Punk Girl.  I like the way you died your hair.
 Hey, Punk Boy.  I like the hightops that you wear.
 My folks split for the weekend and I found Daddy's stash,
 So lets go to the drive in, it's the monster bash"

BRIDGE1:
e|----------------------------------------------------------|
B|----------------------------------------------------------|
G|-555555555555----------------555555555555--7777777-7-7-7--|
D|-555555555555--555555555555--555555555555--7777777-7-7-7--|
A|-333333333333--555555555555--333333333333--5555555-5-5-5--|
E|---------------333333333333-------------------------------|
                   PMPMPMPM

e|-----------------------------------------------------------------------|
B|-----------------------------------------------------------------------|
G|-555555555555----------------555555555555--777777777777--777777777777--|
D|-555555555555--555555555555--555555555555--777777777777--777777777777--|
A|-333333333333--555555555555--333333333333--555555555555--666666666666--|
E|---------------333333333333--------------------------------------------|
                   PMPMPMPM
"I had been fooling around with stupid girls,
 Until I met you at my show.
 I had been fooling around with stupid boys,
 But you're the coolest one I know - One I know!"

SOLO:
e|--------------------------------------------------------|
B|-4-----4-6-------4---------4-----4-6-------4---------4--|
G|---5-5-----5-5-6---6-5-3-5---5-5-----5-5-6---6-5-3h5----|
D|--------------------------------------------------------|
A|--------------------------------------------------------|
E|--------------------------------------------------------|

e|-444444-6^-4---444444-6^-4---444444-6^-4---16-16-16-16-16-16-17^-16--|
B|-444444------4-444444------4-444444------4---------------------------|
G|---------------------------------------------------------------------|
D|---------------------------------------------------------------------|
A|---------------------------------------------------------------------|
E|---------------------------------------------------------------------|

BRIDGE2:
e|----------------------------------|
B|----------------------------------|
G|------------------555555--777777--|X3
D|--555555--222222--555555--777777--|
A|--555555--222222--333333--555555--|
E|--333333--000000------------------|
    PMPMPM  PMPMPM  PMPMPM  PMPMPM

(Then, on fourth time):
e|---------------------------------|
B|---------------------------------|
G|------------------555555-7xxxxx--|
D|--555555--222222--555555-7xxxxx--|
A|--555555--222222--333333-5xxxxx--|
E|--333333--000000-----------------|
    PMPMPM  PMPMPM
"Oh, Tammy, When I saw you accross the gymnasium floor at the high school dance
 I knew you were meant for me and I promise I'll be good to you.  I'll even be
 good to your Mama."

"Oh, Andy, you're so dreamy, you'll always be my number one, and the next time
 I get you home alone I'm gonna make you my bitch, as long as you bring the
 girbles and the rubber sheets"

VERSE3:
e|----------------------------------|
B|----------------------------------|
G|------------------555555--777777--|X4
D|--555555--222222--555555--777777--|
A|--555555--222222--333333--555555--|
E|--333333--000000------------------|
"Hey, Punk girl.  I knew I loved you from the start.
 Hey Punk boy.  You put a clothespin through my heart.
 So lets go back to my place and play some Tony Hawk,
 My curfew's at eleven, so why don't we just fuck."

OUTRO (Guitar 1)
e|---------------------------------|
B|------------------555555-777777--|
G|--555555--222222--555555-777777--|X17
D|--555555--222222--333333-555555--|
A|--333333--000000-----------------|
E|---------------------------------|

(After guitar one plays it's part four times, guitar 2 joins in with):
e|------------------------------------------------------|
B|-4-----4-6-------4---------4-----4-6-------4----------|
G|---5-5-----5-5-6---6-5-3-5---5-5-----5-5-6---6-5-3-5--|
B|------------------------------------------------------|
A|------------------------------------------------------|
E|------------------------------------------------------|

e|-444444-6^-4---444444-6^-4---6p4---------4-----4-------6--|
B|-444444------4-444444------4-----4-4h6p4---6p4---4h6p4----|
G|----------------------------------------------------------|
D|----------------------------------------------------------|
A|----------------------------------------------------------|
E|----------------------------------------------------------|

e|-6p4-----6p4-------4-6^-4-----4-6^-4-----4-6^-4-----4-6^-4--|
B|-----4-6-----4-4h6--------4h6--------4h6--------4h6---------|
G|------------------------------------------------------------|
D|------------------------------------------------------------|
A|------------------------------------------------------------|
E|------------------------------------------------------------|

e|-----4-6^-4-----4-6^-4-----4-6^-4--|
B|-4h6--------4h6--------4h6---------|
G|-----------------------------------|
D|-----------------------------------|
A|-----------------------------------|
E|-----------------------------------|
"Hey, Punk Girl,
 Hey, Punk Boy." (sing X17)


| /  slide up
| \  slide down
| h  hammer-on
| p  pull-off
| ~  vibrato
| +  harmonic
| x  Mute note
| PM Palm Mute

Donahue2: point_blanc99@hotmail.com
===============================================================================
comments
We did not receive enough feedback on this tab! Please rate:
print report bad tab
1 2 3 4 5
I want to post or [tab]
guest
You may want to rate the tab now too:
select rating
Please do not post tabs as comments. Select "correction" instead!