Oops, an error
Loading. Please wait.

Return To Blood Beach Tab

version 2
version 2

Whole song

155 views 1 this week
no commentswrite comment
1 2 3 4 5
please rate
add to favorites
launch autoscroll
font size
0
reset
how to read this tab
guitar tuner
Autoscroll
slow
fast
+/-
esc
set tempo
stop
Help us to improve Ultimate-Guitar.com Take our survey!
×
Difficulty
novice
  Tabbed by: Auzei13

  / = slide down



e|----------------------------|----------------------------|--------------------|
B|----------------------------|----------------------------|--------------------|
G|----------------------------|----------------------------|--------------------|
D|----------------------------|----------------------------|--------------------|
A|----------------------------|----------------------------|--------------------|
E|0--2-3-0--7--7-5-5-3-3-2-2--|8--8--8-8-5-7--7-5-5-3-3-2-2|-10--10--8-10-10-8--|
  <---------- x3 ---------------------------------------------------------------|

e|-----------------------------------------------------------------------|
B|-----------------------------------------------------------------------|
G|-----------------------------------------------------------------------|
D|-----------------------------------------------------------------------|
A|-----------------------------------------------------------------------|
E|12--10-8-10---8--8--6-8-8-6--10--8-6-8---10--10--8-10-10-8--12--10-8-10|

e|----------------------------|----------------------------|----------------------|
B|----------------------------|----------------------------|----------------------|
G|----------------------------|----------------------------|----------------------|
D|----------------------------|----------------------------|----------------------|
A|----------------------------|----------------------------|----------------------|
E|8--8--8-8-5-7--7-5-5-3-3-2-2|0--2-3-0--7--7-5-5-3-3-2-2--|8--8--8-8-5-7--7-5-5--|
                               <----------- x3 -----------------------------------|

e|--------|-----------------------------|------------------------------|
B|--------|-----------------------------|------------------------------|
G|--------|---------------------------------------------------------|--|
D|--------|-----------------------------|------------------------------|
A|--------|-----------------------------|------------------------------|
E|-3-3-2-2|-0--2-3-0--7--7-5-5-3-3-2-2--|8--8--8-8-5-7--7-5-5-3-3-2-2--|


e|--------------------------------------------------------------------------------|
B|--------------------------------------------------------------------------------|
G|--------------------------------------------------------------------------------|
D|--------------------------------------------------------------------------------|
A|--------------------------------------------------------------------------------|
E|-10--10--8-10-10-8-12--10-8-10---8--8--6-8-8-6--10--8-6-8---10--10--8-10-10-8---|


e|-------------------------------------------|-------------|-----------|
B|-------------------------------------------|-------------|-----------|
G|-------------------------------------------|-------------|-----------|
D|-------------------------------------------|-------------|-----------|
A|-------------------------------------------|-------------|-----------|
E|-12--10-8-10---8--8--8-8-5-7--7-5-5-3-3-2-2|0-------2-2-1|0----15/1|-|
                                             <---- x3 -----------------|     slow

e|-------------------------------------------------------|--------------------------------|
B|-------------------------------------------------------|--------------------------------|
G|-------------------------------------------------------|--------------------------------|
D|----------------------------------------------------------------------------------------|
A|-------------------------------------------|--------------------------------------------|
E|0--2-3-0--7--7-5-5-3-3-2-2-8--8--8-8-5-7--7-5-5-3-3-2-2|-10--10--8-10-10-8-12--10-8-10--|
 <-------------------------- x2 ----------------------------------------------------------|

e|------------------------------------------------------------------------------------------|
B|------------------------------------------------------------------------------------------|
G|------------------------------------------------------------------------------------------|
D|------------------------------------------------------------------------------------------|
A|------------------------------------------------------------------------------------------|
E|8--8--6-8-8-6--10--8-6-8---10--10--8-10-10-8--12--10-8-10---8--8--8-8-5-7--7-5-5-3-3-2-2--|


e|-------------------------|-------------------------|------------------------|
B|-------------------------|-------------------------|------------------------|
G|-------------------------|-------------------------|------------------------|
D|-------------------------|-------------------------|------------------------|
A|-------------------------|-------------------------|------------------------|
E|0--2-3-0-0--0-2-2-3-3-2-2|0--2-3-0-0--0-2-2-3-3-2-2|0-----------------------|
 <---------- x3 ----------->              S-L-O-O-O-W-------------------------|
Suggest correction
What's this?
You can suggest a correction to this tab. Community and Mods will review your correction and vote to approve or reject it.
comments
We did not receive enough feedback on this tab! Please rate:
print report bad tab
1 2 3 4 5
guest
You may want to rate the tab now too:
select rating
Please do not post tabs as comments. Select "correction" instead!