Oops, an error
Loading. Please wait.

1000 Good Intentions Tab

version 1
version 1

Whole song

Interactive

9,488 views 9 this week
4 commentsread comments
1 2 3 4 5
x 7
add to favorites
launch autoscroll
font size
0
reset
how to read this tab
guitar tuner
Autoscroll
slow
fast
+/-
esc
set tempo
stop
Help us to improve Ultimate-Guitar.com Take our survey!
×
                            RISE AGAINST
                         1000 GOOD INTENTIONS


STANDARD TUNING
EADGBe

intro
--------------------------------------------------------------------------|
--------------------------------------------------------------------------|
--------------------------------------------------------------------------|
-----99----99----9--------------99----99----9--------------99----99----9--|
-----77----77----7-7-7-7-5-5----77----77----7-7-5-9-9-9----77----77----7--|
--00----00----00-------------00----00----00-------------00----00----00----|

--------------------------------|
--------------------------------|
--------------------------------|
--------------------------------|x2
-7-7-7-7-5-5-9-9-9-9-9-9-9-9----|
--------------------------------|

chorus
---------------------------------------------------------------------------|
---------------------------------------------------------------------------|
------------------------------------------9-9-9-9-9-9-9-9-9-9-9-9-9-9-9-9--|
--10-10-10-10-10-10-10-10-7-7-7-7-7-7-7-7-9-9-9-9-9-9-9-9-9-9-9-9-9-9-9-9--|
--10-10-10-10-10-10-10-10-7-7-7-7-7-7-7-7-7-7-7-7-7-7-7-7-7-7-7-7-7-7-7-7--|
---8--8--8--8--8--8--8--8-5-5-5-5-5-5-5-5----------------------------------|

----------------------------------------------------------------------------|
----------------------------------------------------------------------------|
-----------------------------------------10-9-9-9-9-9-9-9-9-9-9-9-9-9-9-9-9-|
-10-10-10-10-10-10-10-10-7-7-7-7-7-7-7-7-10-9-9-9-9-9-9-9-9-9-9-9-9-9-9-9-9-|
-10-10-10-10-10-10-10-10-7-7-7-7-7-7-7-7--8-7-7-7-7-7-7-7-7-7-7-7-7-7-7-7-7-|
--8--8--8--8--8--8--8--8-5-5-5-5-5-5-5-5------------------------------------|

---------------------------------------------------------------------------|
---------------------------------------------------------------------------|
------------------------------------------9-9-9-9-9-9-9-9-9-9-9-9-9-9-9-9--|
--10-10-10-10-10-10-10-10-7-7-7-7-7-7-7-7-9-9-9-9-9-9-9-9-9-9-9-9-9-9-9-9--|
--10-10-10-10-10-10-10-10-7-7-7-7-7-7-7-7-7-7-7-7-7-7-7-7-7-7-7-7-7-7-7-7--|
---8--8--8--8--8--8--8--8-5-5-5-5-5-5-5-5----------------------------------|

-------------------------------------------|
-------------------------------------------|
-------------------------------------------|
-10-10-10-10-10-10-10-10-7-7-7-7-7-7-7-7---|
-10-10-10-10-10-10-10-10-7-7-7-7-7-7-7-7---|
--8--8--8--8--8--8--8--8-5-5-5-5-5-5-5-5---|

--------------------------------------------------------------------------|
--------------------------------------------------------------------------|
--------------------------------------------------------------------------|
-----99----99----9--------------99----99----9--------------99----99----9--|
-----77----77----7-7-7-7-5-5----77----77----7-7-5-9-9-9----77----77----7--|
--00----00----00-------------00----00----00-------------00----00----00----|

--------------------------------|
--------------------------------|
--------------------------------|
--------------------------------|x2
-7-7-7-7-5-5-9-9-9-9-9-9-9-9----|
--------------------------------|

chorus
---------------------------------------------------------------------------|
---------------------------------------------------------------------------|
------------------------------------------9-9-9-9-9-9-9-9-9-9-9-9-9-9-9-9--|
--10-10-10-10-10-10-10-10-7-7-7-7-7-7-7-7-9-9-9-9-9-9-9-9-9-9-9-9-9-9-9-9--|
--10-10-10-10-10-10-10-10-7-7-7-7-7-7-7-7-7-7-7-7-7-7-7-7-7-7-7-7-7-7-7-7--|
---8--8--8--8--8--8--8--8-5-5-5-5-5-5-5-5----------------------------------|

----------------------------------------------------------------------------|
----------------------------------------------------------------------------|
-----------------------------------------10-9-9-9-9-9-9-9-9-9-9-9-9-9-9-9-9-|
-10-10-10-10-10-10-10-10-7-7-7-7-7-7-7-7-10-9-9-9-9-9-9-9-9-9-9-9-9-9-9-9-9-|
-10-10-10-10-10-10-10-10-7-7-7-7-7-7-7-7--8-7-7-7-7-7-7-7-7-7-7-7-7-7-7-7-7-|
--8--8--8--8--8--8--8--8-5-5-5-5-5-5-5-5------------------------------------|

---------------------------------------------------------------------------|
---------------------------------------------------------------------------|
------------------------------------------9-9-9-9-9-9-9-9-9-9-9-9-9-9-9-9--|
--10-10-10-10-10-10-10-10-7-7-7-7-7-7-7-7-9-9-9-9-9-9-9-9-9-9-9-9-9-9-9-9--|
--10-10-10-10-10-10-10-10-7-7-7-7-7-7-7-7-7-7-7-7-7-7-7-7-7-7-7-7-7-7-7-7--|
---8--8--8--8--8--8--8--8-5-5-5-5-5-5-5-5----------------------------------|

-------------------------------------------|
-------------------------------------------|
-------------------------------------------|
-10-10-10-10-10-10-10-10-7-7-7-7-7-7-7-7---|
-10-10-10-10-10-10-10-10-7-7-7-7-7-7-7-7---|
--8--8--8--8--8--8--8--8-5-5-5-5-5-5-5-5---|

thats pretty much the whole song
peace
Suggest correction
comments
print report bad tab
4 comments total. Showing first comments.
0 reply
Adam_Harrison9 161 Mar 14, 2007 12:05 PM

You've missed out some octaves after the chorus something like:

11--9---8---999999---8--9
x---x---x---xxxxxx---x--x
9---7---6---777777---6--7

0 reply
Adam_Harrison9 161 Mar 18, 2007 10:26 AM

You've also got nothing for the bridge.

0 reply
Musicislife539 98 Nov 23, 2007 07:52 PM

dude the bridge is like the best part wtf

guest
You may want to rate the tab now too:
select rating
Wanna post a correction for this tab? Suggest correction