Oops, an error
Loading. Please wait.

401 Kill Tab

5,543 views 6 this week
no commentswrite comment
1 2 3 4 5
accurate
x 6
add to favorites
launch autoscroll
font size
0
reset
how to read this tab
guitar tuner
Autoscroll
slow
fast
+/-
esc
set tempo
stop
Help us to improve Ultimate-Guitar.com Take our survey!
×
Author
make sure to listen to this song to figure out the rhythms and stuff. people were saying 
other one was too confusing, so i hope this makes more sense...

-----------------------------------------------------------------------------
                             401KILL - Rise Against
-----------------------------------------------------------------------------

Tuning:Standard(EADGBe)

intro:
e|----------------------------------|
B|----------------------------------|
G|-----------6-9\6--11-9\7--6-6-7\6-|
D|-4-4--7/9--x-x\x--x--x\x--6-6-x\x-|
A|-4-4--7/9--4-7\4--9--7\5--4-4-5\4-|
E|-2-2--5/7-------------------------|
   x                        x

verse i:
e|--------------------------|
B|--------------------------|
G|--------------6--11-9\7-6-|
D|-4~-4~-4-7/9--6--11-x\x-6-|
A|-4~-4~-4-7/9--4--9--7\5-4-|
E|-2~-2~-2-5/7--------------|

chorus:
e|-----------------------------------------|
B|-----------------------------------------|
G|-6/7-9-11-14-13-10--6/7-9-11-14-13-16/13-|
D|-x/x-x-x---x--x-x---x/x-x-x---x--x--x/-x-|
A|-4/5-7-9--12-11-8---4/5-7-9--12-11-14/11-|
E|-----------------------------------------|

e|-----------------------------------|
B|-----------------------------------|
G|-6/7-9-11-14-13-10--6/7-9-11-14-13-|
D|-x/x-x-x---x--x-x---x/x-x-x---x--x-|
A|-4/5-7-9--12-11-8---4/5-7-9--12-11-|
E|-----------------------------------|

verse ii:
-------------------------------------------------|
B|-----------------------------------------------|
G|-----------------------------------6--11-9\7-6-|
D|-4-4-4--4-4-4--4-4-4--4-4-4--4-7/9-6--11-x\x-6-|
A|-4-4-4--4-4-4--4-4-4--4-4-4--4-7/9-4--9--7\5-4-|
E|-2-2-2--2-2-2--2-2-2--2-2-2--2-5/7-------------|
   x x    x x    x x    x x

bridge i:  bridge ii:
e|-------| |------------------|
B|-------| |------------------|
G|-16-13-| |-7---7---7---9-13-|
D|--x--x-| |-7-4-7-4-7-4-x--x-|
A|-14-11-| |-5-4-5-4-5-4-7-11-|
E|-------| |---2---2---2------|

bridge iii:
e|--------------------|
B|--------------------|
G|-11--14-13----------|
D|-x----x--x-11--12-9-|
A|-9---12-11-x----x-x-|
E|-----------9---10-7-|

end on:
e|-------|
B|-------|
G|-11~~~-|
D|-11~~~-|
A|-9~~~~-|
E|-9~~~~-|

=============================================================================

ORDER:
intro x2;
verse i x1;
chorus x1;
intro x1;
verse ii x 1;
chorus x1;
bridge i x1;
bridge ii x2;
bridge iii x4;
end...
Suggest correction
comments
print report bad tab
guest
You may want to rate the tab now too:
select rating
Please do not post tabs as comments. Select "correction" instead!