Oops, an error
Loading. Please wait.

A Beautiful Indifference tab

version 2
version 2

Whole song

268 views 6 this week
no commentswrite comment
1 2 3 4 5
2 more votes to show rating
add to favorites
×
Save as Personal and add changes to this tab that will be seen only by you. Learn more ›
×
You can save this tab as Personal to edit and correct it or add notes. All changes will be seen only by you. Learn more »
launch autoscroll
font size
0
reset
how to read this tab
guitar tuner
edit
Autoscroll
slow
fast
+/-
esc
set tempo
stop
-------------------------------------------------------------------------------
                             A Beautiful Indifference - Rise Against
-------------------------------------------------------------------------------
Tabbed by: andrewheher
E-mail: andrewheher@gmail.com

Tuning: Half Step Down; D# C# G# F# A# D#

So I couldn't find any tabs of the full song on YouTube, Ultimate Guitar, or Songsterr, so here you go! :)
And I used this YouTube video for reference! Check it out! https://www.youtube.com/watch?v=S17bNu8eRV8

ENJOY!   (Listen to the song for rhythm!) 

Intro; 


Rhythm 
e|--------0--------------------------------------|
B|-----------0-----------------------------------|
G|--------------2+-----------pickslide-----------|
D|--4+------------------------\\\\\\\------------|
A|--4+------------------------\\\\\\\\----------|
E|--2+------------------------\\\\\\\\----------|


Lead
e|--------------------|
B|--2+----------------|
G|--3+----------------|
D|--4+----------------|
A|--4+----------------|
E|--------------------|


Rhythm 
e|---------------------------------------------------------------------------|
B|---------------------------------------------------------------------------|
G|---------------------------------------------------------------------------|
D|--2--44444444--7-9---------------7-10-9--222222222222222222222222222222222-|
A|--2--44444444--7-9----x4--THEN---7-10-9--222222222222222222222222222222222-|
E|--0--22200222--5-7---------------5-8--7--000000000000000000000000000000000-|



Lead 
e|---------------------------------------------------------------------------|
B|---------------------------------------------------------------------------|
G|-----------------------------------------1313131313131313131313/1414141414-|
D|--2--44444444--7-9---------------7-10-9------------------------------------|
A|--2--44444444--7-9----x4--THEN---7-10-9--1111111111111111111111/1212121212-|
E|--0--22200222--5-7---------------5-8--7------------------------------------|


Both guitars (this part is played a little fast)
E|-----------------------------------------------------------------------------|
B|-----------------------------------------------------------------------------|
G|-----------------------------------------------------------------------------|
D|-----------------------------------------------------------------------------|
A|-----------------------------------------------------------------------------|
E|-2-2-2-0-2/5h7p5-8-5h7---2-2-2-0-2/5h7p5-8-5h7-------------------------------|



Rhythm 
e|---------------------------------------------------------------------------------------------|
B|---------------------------------------------------------------------------------------------|
G|---------------------------------------------------------------------------------------------|
D|--2--44444444--7-9---------------7-10-9---2222222222222222222222222222222222222222222222222--|
A|--2--44444444--7-9----x4--THEN---7-10-9---2222222222222222222222222222222222222222222222222--|
E|--0--22200222--5-7---------------5-8--7---0000000000000000000000000000000000000000000000000--|

Lead
e|----------------------------------------------------------------------------------------------|
B|-555555555555555555555555555555555555555------------------------------------------------------|
G|-----------------------------------------131313131313/141414141414/161616161616/181818181818--|
D|----------------------------------------------------------------------------------------------|
A|-----------------------------------------111111111111/121212121212/141414141414/161616161616--|
E|----------------------------------------------------------------------------------------------|
   ................................


Pre-Chorus; 



Rhythm 
e|----------------------------------------------------------------------------------|
B|----------------------------------------------------------------------------------|
G|--77777777\44444444----------------222222------444444---------------------666666--|
D|--77777777\44444444-44444444-------222222222222444444444444/77777777777777666666--|
A|--55555555\22222222-44444444--x2---000000222222222222444444/77777777777777444444--|
E|--------------------22222222-------------000000------222222/55555555555555--------|

Lead
e|----------------------------------------------------------------------------------|
B|----------------------------------------------------------------------------------|
G|--13131313\14141414\11111111-------222222------444444---------------------666666--|
D|------------------------------x2---222222222222444444444444/77777777777777666666--|
A|--14141414\12121212\99999999-------000000222222222222444444/77777777777777444444--|
E|-----------------------------------------000000------222222/55555555555555--------|


Chorus 

Rhythm 
e|---------------------------------------------------------------------------|
B|---------------------------------------------------------------------------|
G|----------77777777---------------------------------------------------------|
D|-44444444-77777777-77777777-99999999---x4----------------------------------|
A|-44444444-55555555-77777777-99999999---------------------------------------|
E|-22222222----------55555555-77777777---------------------------------------|

Lead
e|-------------------------9999------9999------999910101010999977779999----9999-----777799997777---------|
B|-5555/8888\5555/7777--x2------7777------7777-------------------------7777----7777-------------10101010-|
G|-------------------------------------------------------------------------------------------------------|
D|-------------------------------------------------------------------------------------------------------|
A|-------------------------------------------------------------------------------------------------------|
E|-------------------------------------------------------------------------------------------------------|

Post Chorus


Rhythm 
e|----------------------------------------------------------|
B|----------------------------------------------------------|
G|----------------------------------------------------------|
D|-11111111111111111111111111111111111111111111111----------|
A|-11111111111111111111111111111111111111111111111----------|
E|-99999999999999999999999999999999999999999999999----------|

Lead
e|----------------------------------------------------------|
B|----------------------------------------------------------|
G|-1313131313131313/1414141414141414\11111111\7777----------|
D|----------------------------------------------------------|
A|-1111111111111111/1212121212121212\99999999\5555----------|
E|----------------------------------------------------------|

Intro
 
Rhythm 
e|--------0-----------------------------------------------------------------------------------|
B|-----------0--------------------------------------------------------------------------------|
G|--------------2+----------------------------------------------------------------------------|
D|--4+------------------------4+----X---------------------------------------------------------|
A|--4+---------------3b-------4+----X-x20---(slide down the neck slowy and then back up)------|
E|--2+------------------------2+----X---------------------------------------------------------|


Lead
e|-----------------------|
B|--2+-------------------|
G|--3+-------------------|
D|--4+-------------------|
A|--4+---------------3b--|
E|-----------------------|


Now play this; 

Verse;

Rhythm 
e|---------------------------------------------------------|
B|---------------------------------------------------------|
G|---------------------------------------------------------|
D|----222222222222222222222222222222222222222222222222222--|
A|----222222222222222222222222222222222222222222222222222--|
E|----000000000000000000000000000000000000000000000000000--|

Lead
e|---------------------------------------------------------|
B|---------------------------------------------------------|
G|----131313131313/141414141414/161616161616/181818181818--|
D|---------------------------------------------------------|
A|----111111111111/121212121212/141414141414/161616161616--|
E|---------------------------------------------------------|


Pre Chorus


Rhythm 
e|------------------------------------------------------------------------------------------------|
B|---------------------------------------------------------------------------------------12+------|
G|--77777777\44444444------------77777777\44444444/66666666666666666666666666-6-6-6-6-------------|
D|--77777777\44444444-44444444---77777777\44444444/66666666666666666666666666-6-6-6-6-------------|
A|--55555555\22222222-44444444---55555555\22222222/44444444444444444444444444-4-4-4-4-------------|
E|--------------------22222222--------------------------------------------------------------------|


Lead
e|------------------------------------------------------------------------------------------------|
B|------------------------------------------------------------------------------------------------|
G|--16161616\14141414\11111111---16161616\14141414\1313131313131313131313/14/13/11/9--------------|
D|------------------------------------------------------------------------------------------------|
A|--14141414\12121212\99999999---14141414\12121212\1111111111111111111111/12/11/9-/7--------------|
E|------------------------------------------------------------------------------------------------|


(Play Chorus)


Post Chorus;

Rhythm 
e|--------------------------------------------------|
B|--------------------------------------------------|
G|--------------------------------------------------|
D|-11111111111111111111111111111111111111111111111--|
A|-11111111111111111111111111111111111111111111111--|
E|-99999999999999999999999999999999999999999999999--|

Lead
e|-------------------------------------------------|
B|-------------------------------------------------|
G|-1313131313131313/1414141414141414\11111111\7----|
D|-------------------------------------------------|
A|-1111111111111111/1212121212121212\99999999\7----|
E|-------------------------------------------------|



Solo; (I did my best lol)


Rhythm 
e|---------------------------------------------------------------------------------------------------------|
B|-101010\999\77777/101010\999\555555/101010\999/101010\999/101010\999/101010\999/101010\999\77777/101010\-|
G|---------------------------------------------------------------------------------------------------------|
D|---------------------------------------------------------------------------------------------------------|
A|---------------------------------------------------------------------------------------------------------|
E|---------------------------------------------------------------------------------------------------------|

e|----------------------------------------------------------------|
B|--\999\55555/101010\999/101010\999/101010/999\101010/9999-------|
G|----------------------------------------------------------------|
D|----------------------------------------------------------------|
A|----------------------------------------------------------------|
E|----------------------------------------------------------------|

Lead  (these are all octaves. This one takes a lot of practice lol)
e|----------------------------------------------------------------------------------------------------------|
B|----------------------------------------------------------------------------------------------------------|
G|--14--13--11-13/14/16/18-18-18/20\18\16-16/18\16\14111111\9/1114-13-1113-14-16-18-18-18/20\18\16-16-16/18/|
D|----------------------------------------------------------------------------------------------------------|
A|--12--11--9--11/12/14/16-16-16/18\16\14-14/16\14\12\9-9-9\7/9-12-11-9-11-12-14-16-16-16/18\16\14-14-14/16/|
E|----------------------------------------------------------------------------------------------------------|

e|------------------------------------|
B|------------------------------------|
G|---16/14/111\9/11/13/15\14----------|
D|------------------------------------|
A|--/14/12/999\7/9/11/13-\12----------|
E|------------------------------------|


Bridge; 


Rhythm 
e|---0000000000000000/0000000000000000\0000000000000000/0000000000000000/000000000000+---------------------|
B|---7777777777777777/9999999999999999\7777777777777777/9999999999999999/101010101010+---------------------|
G|---------------------------------------------------------------------------------------------------------|
D|---------------------------------------------------------------------------------------------------------|
A|---------------------------------------------------------------------------------------------------------|
E|---------------------------------------------------------------------------------------------------------|

Lead
e|---------------------------------------------------------------------------------------------------------|
B|---------------------------------------------------------------------------------------------------------|
G|---14141414141414/161616161616161616\14141414141414/1616161616161616--11+--7+--------4+--9/11\7------4+--|
D|---14141414141414/161616161616161616\14141414141414/1616161616161616------------3+---------------3+------|
A|---12121212121212/141414141414141414\12121212121212/1414141414141414--9+---5+---3+---2+--7/9-\5--3+--2+--|
E|--------------------------------------------------------------------------------1+---------------1+------|


Rhythm 

e|------------------------------------------------------------|
B|------------------------------------------------------------|
G|--------7777------------------7777-------------pickslide----|
D|--4-444-7777------9999---4444-7777-7777-9999---\\\\\\\\-----|
A|--2-444-5555-7777-9999---4444-5555-7777-9999---\\\\\\\\\----|
E|--2-222------5555-7777---2222------5555-7777---\\\\\\\\\----|
    . ... .... .... ....   .... .... .... ....

Lead

e|------------------------------------------------------------|
B|------------------------------------------------------------|
G|--------7777------------------7777-------------pickslide----|
D|--4-444-7777------9999---4444-7777-7777-9999---\\\\\\\\-----|
A|--2-444-5555-7777-9999---4444-5555-7777-9999---\\\\\\\\\----|
E|--2-222------5555-7777---2222------5555-7777---\\\\\\\\\----|
    . ... .... .... ....   .... .... .... ....


Outro;


Rhythm
e|----------------------------|
B|----------------------------|
G|-------7777-----------------|
D|--4444-7777------9999--x4---|
A|--4444-5555-7777-9999-------|
E|--2222------5555-7777-------|

Lead
e|-------------------------------------------|
B|---5555-7777-5555h7p5h7p5h7p7/9---x4-------|
G|-------------------------------------------|
D|-------------------------------------------|
A|-------------------------------------------|
E|-------------------------------------------|


e|-----------------------------------------------------------------|
B|-----------------------------------------------------------------|
G|-----------------------------------------------------------------|
D|---11111111111111111111111111111111111111111111111111111111111---|
A|---11111111111111111111111111111111111111111111111111111111111---|
E|---9999999999999999999999999999999999999999999999999999999999----|


e|--------------------------------------------------------------------|
B|---99999999/1010101010101010/1212121212121212/1414141414141414------|
G|--------------------------------------------------------------------|
D|--------------------------------------------------------------------|
A|--------------------------------------------------------------------|
E|--------------------------------------------------------------------|


And that's it! I hope you enjoyed this tab, and there will be plenty more tabs
to come whenever I have the time! Danke Schon! :-)


************************************

| /   slide up
| \   slide down
| h   hammer-on
| p   pull-off
| +   harmonic
| x   Mute note
| b   Bend

************************************
Suggest correction
Creating personal tab
Creating personal tab
You can edit any tab online and save it as your Personal.

You can edit, replace or remove any tab part or add personal notes – all changes will be seen only by you.

Personal tabs can be accessed anytime from any device, even offline.
Learn more »
Give kudos to tab author, rate the tab!
1 2 3 4 5
comments
print report bad tab
guest
You may want to rate the tab now too:
select rating
Wanna post a correction for this tab? Suggest correction