Oops, an error
Loading. Please wait.

Alive And Well Tab

version 2
version 2

Whole song

Interactive

347 views 1 this week
no commentswrite comment
1 2 3 4 5
2 more votes to show rating
add to favorites
launch autoscroll
font size
0
reset
how to read this tab
guitar tuner
Autoscroll
slow
fast
+/-
esc
set tempo
stop
Help us to improve Ultimate-Guitar.com Take our survey!
×
Author
Difficulty
Tuning
intermediate
C G C F A D
-----------------------------------------------------------------------------
                         Rise Against - Alive and Well
-----------------------------------------------------------------------------

Tabbed by: Metalrock4ever

Tuning: CGCFAD

Intro:
(Listen to when you come in)
|----------------------|
|----------------------|
|----------------------|
|-555--555--555--555-\-|
|-555--555--555--555-\-|
|-555--555--555--555-\-|

Solo Part:
D|---------------------|
A|---------------------|
F|---------------------|
C|-5555-5555-5555-5555-|  x2
G|---------------------|
C|---------------------|


Verse:
D|--------------------------------|
A|--------------------------------|
F|--------------------------------|
C|-5-0-7-0-8-0-10--5-0-7-0-8-0-10-|  
G|-5-0-7-0-8-0-10--5-0-7-0-8-0-10-|
C|-5-0-7-0-8-0-10--5-0-7-0-8-0-10-|

D|------------------------------|
A|------------------------------|
F|------------------------------|
C|-5-0-7-0-8-0-10--5-0-1-3-5555-|
G|-5-0-7-0-8-0-10----------5555-|
C|-5-0-7-0-8-0-10----------5555-|


Chorus:
D|-----------------------------------------------------------|
A|-----------------------------------------------------------|
F|-----0-8888------------8888-----0-8888-77-77-1010-1010-----|
C|-555---8888-5555-777-8-8888-555---8888-77-77-1010-1010-8-7-|  x2
G|-555---6666-5555-777-8-6666-555---6666-55-55-8-8--8-8--8-7-|
C|-555--------5555-777-8------555------------------------8-7-|


Post-Chorus:
D|-----------------------|
A|-----------------------|
F|-----------------------|
C|-5-0-7-0-8-10-0-55---\-|
G|----------------55---\-|
C|----------------55---|-|


Verse 2:
D|--------------------------------|
A|--------------------------------|
F|--------------------------------|
C|-5-0-7-0-8-0-10--5-0-7-0-8-0-10-|  
G|-5-0-7-0-8-0-10--5-0-7-0-8-0-10-|
C|-5-0-7-0-8-0-10--5-0-7-0-8-0-10-|

D|------------------------------|
A|------------------------------|
F|------------------------------|
C|-5-0-7-0-8-0-10--5-0-1-3-5555-|
G|-5-0-7-0-8-0-10----------5555-|
C|-5-0-7-0-8-0-10----------5555-|


Chorus 2:
D|-----------------------------------------------------------|
A|-----------------------------------------------------------|
F|-----0-8888------------8888-----0-8888-77-77-1010-1010-----|
C|-555---8888-5555-777-8-8888-555---8888-77-77-1010-1010-8-7-|  x2
G|-555---6666-5555-777-8-6666-555---6666-55-55-8-8--8-8--8-7-|
C|-555--------5555-777-8------555------------------------8-7-|


Bridge:
D|-------------|
A|-------------|
F|-------------|
C|-5~-5x5x5x5x-|
G|-5~-5x5x5x5x-|
C|-5~-5x5x5x5x-|

D|----------------------------------------------------------|
A|----------------------------------------------------------|
F|-7-888-7-101010-8-101010-8-121212-7-888-7-101010-8-101010-|
C|-7-888-7-101010-8-101010-8-121212-7-888-7-101010-8-101010-|
G|-5-666-5-8-8-8--6-8-8-8--6-101010-5-666-5-8-8-8--6-8-8-8--|
C|----------------------------------------------------------|

Solo Part 1:
D|-3333-6666-55-88-5555-1010-88-66-55-6666-5555-8888-5555-|
A|--------------------------------------------------------|
F|--------------------------------------------------------|
C|--------------------------------------------------------|
G|--------------------------------------------------------|
C|--------------------------------------------------------|

D|-1010-88-1111-1010-6666-55----------|
A|------------------------------------|
F|------------------------------------|
C|---------------------------8-7-5555-|
G|---------------------------8-7-5555-|
C|---------------------------8-7-5555-|

Solo Part 2:
D|------------------------------------------------------|
A|------------------------------------------------------|
F|--------------55------77-55-----------------5555------|
C|-5555-8888-77----7777-------88-77-8888-7777------7777-|
G|------------------------------------------------------|
C|------------------------------------------------------|

D|------------------------------|
A|------------------------------|
F|-77-55-88-77------------------|
C|-------------8888-77-8-7-5555-|
G|---------------------8-7-5555-|
C|---------------------8-7-5555-|

Final Chorus:
D|-----------------------------------------------------------|
A|-----------------------------------------------------------|
F|-----0-8888------------8888-----0-8888-77-77-1010-1010-----|
C|-555---8888-5555-777-8-8888-555---8888-77-77-1010-1010-8-7-|  
G|-555---6666-5555-777-8-6666-555---6666-55-55-8-8--8-8--8-7-|
C|-555--------5555-777-8------555------------------------8-7-|

D|-------------------------------------------------------------|
A|-------------------------------------------------------------|
F|-----0-8888------------8888-----0-8888-77-77-1010-1010-------|
C|-555---8888-5555-777-8-8888-555---8888-77-77-1010-1010-8-7-5-|  
G|-555---6666-5555-777-8-6666-555---6666-55-55-8-8--8-8--8-7-5-|
C|-555--------5555-777-8------555------------------------8-7-5-|

************************************

| /   slide up
| \   slide down
| h   hammer-on
| ~   vibrato
| +   harmonic
| x   Mute note
| b   Bend

************************************

If you have any comments/corrections, please say in either the comments box 
or leave me a message. Good luck and enjoy!
Suggest correction
Give kudos to tab author, rate the tab!
1 2 3 4 5
comments
print report bad tab
guest
You may want to rate the tab now too:
select rating
Wanna post a correction for this tab? Suggest correction