Oops, an error
Loading. Please wait.

Alive And Well tab

version 3
version 3

Whole song

Interactive

19 views 1 this week
no commentswrite comment
1 2 3 4 5
3 more votes to show rating
add to favorites
×
Save as Personal and add changes to this tab that will be seen only by you. Learn more ›
×
You can save this tab as Personal to edit and correct it or add notes. All changes will be seen only by you. Learn more »
launch autoscroll
font size
0
reset
how to read this tab
guitar tuner
edit
Autoscroll
slow
fast
+/-
esc
set tempo
stop
Artist: Rise Against
Song: Alive and Well
Album: The Unraveling (2001)

Guitar 1 (E A D G B e) - 'Dan Wlekinski - Distortion'

Disclaimer: Must be ready to rock

[Intro]
Q = 168
4/4
  Guitar 1
   (W)                                  (H.)                     E   E
e|------------------------------------|------------------------------------|
B|------------------------------------|------------------------------------|
G|--------------[Bass Intro]----------|------------------------------------|
D|------------------------------------|--------------------------3---3-----|
A|------------------------------------|--------------------------3---3-----|
E|------------------------------------|--------------------------1---1-----|

    E  (Q.)        (Q)      E   E        E  (Q.)        (Q)      E   E 
e|------------------------------------|------------------------------------|
B|------------------------------------|------------------------------------|
G|------------------------------------|------------------------------------|
D|--3-----------------------3---3-----|--3-----------------------3---3-----|
A|--3-----------------------3---3-----|--3-----------------------3---3-----|
E|--1-----------------------1---1-----|--1-----------------------1---1-----|

    E  (Q.)        (Q)      E   E        E  (Q.)         H 
e|------------------------------------|------------------------------------|
B|------------------------------------|------------------------------------|
G|------------------------------------|------------------------------------|
D|--3-----------------------3---3-----|--3---------------------------------|
A|--3-----------------------3---3-----|--3---------------------------------|
E|--1-----------------------1---1-----|--1---------------[Pick slide]------|

[Verse 1]
Q = 213
  Gtr 1
    E   Q       E   E   Q       E        E   Q       E   E   Q       E     (x3)
e|------------------------------------|------------------------------------|
B|o-----------------------------------|-----------------------------------o|
G|------------------------------------|------------------------------------|
D|--3---3-------3---5---5-------5-----|--6---6-------6---8---8-------8-----|
A|o-3---3-------3---5---5-------5-----|--6---6-------6---8---8-------8----o|
E|--1---1-------1---3---3-------3-----|--4---4-------4---6---6-------6-----|

    E   Q       E   E   Q       E        E   Q       E   E   Q       E
e|------------------------------------|------------------------------------|
B|------------------------------------|------------------------------------|
G|--10--10------10--5---5-------5-----|--6---6-------6---8---8-------8-----|
D|--x---x-------x---x---x-------x-----|--x---x-------x---x---x-------x-----|
A|--8---8-------8---3---3-------3-----|--4---4-------4---6---6-------6-----|
E|------------------------------------|------------------------------------|

    E   Q       E   E   Q       E        E  (Q.)        (H)
e|------------------------------------|------------------------------------|
B|------------------------------------|------------------------------------|
G|------------------------------------|------------------------------------|
D|--3---3-------3---3---3-------3-----|--3---------------------------------|
A|--3---3-------3---3---3-------3-----|--3---------------------------------|
E|--1---1-------1---1---1-------1-----|--1---------------------------------|

[Chorus 1]
  Gtr 1
    E   Q       E   E   Q       E        E   Q       Q       E   E   E 
e|------------------------------------|------------------------------------|
B|o-----------------------------------|------------------------------------|
G|----------------------10------8-----|--6---6-------6-------6---6---6-----|
D|--3---3-------3---3---10------8-----|--6---6-------6-------6---6---6-----|
A|o-3---3-------3---3---8-------6-----|--4---4-------4-------4---4---4-----|
E|--1---1-------1---1-----------------|------------------------------------|

    E   Q       E   E   Q       E        E   Q       Q       E   E   E 
e|------------------------------------|------------------------------------|
B|------------------------------------|------------------------------------|
G|------------------------------------|--6---6-------6-------6---6---6-----|
D|--3---3-------3---3---5-------6-----|--6---6-------6-------6---6---6-----|
A|--3---3-------3---3---5-------6-----|--4---4-------4-------4---4---4-----|
E|--1---1-------1---1---3-------4-----|------------------------------------|

    E   Q       E   E   Q       E        E   Q       Q       E   E   E 
e|------------------------------------|------------------------------------|
B|------------------------------------|------------------------------------|
G|----------------------10------8-----|--6---6-------6-------6---6---6-----|
D|--3---3-------3---3---10------8-----|--6---6-------6-------6---6---6-----|
A|--3---3-------3---3---8-------6-----|--4---4-------4-------4---4---4-----|
E|--1---1-------1---1-----------------|------------------------------------|

    E   Q       E   Q       E   E       +E   E   Q       Q       E   E     (x2)
e|------------------------------------|------------------------------------|
B|------------------------------------|-----------------------------------o|
G|--5---5-------5---5-------5---8-----|------8---8-------8-----------------|
D|--5---5-------5---5-------5---8-----|------8---8-------8-------6---5-----|
A|--3---3-------3---3-------3---6-----|------6---6-------6-------6---5----o|
E|------------------------------------|--------------------------4---3-----|

    E   Q       E   E   Q       E        E   Q       E   E   Q       E
e|------------------------------------|------------------------------------|
B|------------------------------------|------------------------------------|
G|------------------------------------|------------------------------------|
D|--3---3-------3---5---5-------5-----|--6---6-------6---8---8-------8-----|
A|--3---3-------3---5---5-------5-----|--6---6-------6---8---8-------8-----|
E|--1---1-------1---3---3-------3-----|--4---4-------4---6---6-------6-----|

    E   E  (H.)                         (Q)      H.
e|------------------------------------|------------------------------------|
B|------------------------------------|------------------------------------|
G|------------------------------------|------------------------------------|
D|--3---3-----------------------------|------------------------------------|
A|--3---3-----------------------------|------------------------------------|
E|--1---1-----------------------------|----------[Pick slide]--------------|

[Verse 2] Same as Verse 1
  Gtr 1
    E   Q       E   E   Q       E        E   Q       E   E   Q       E     (x3)
e|------------------------------------|------------------------------------|
B|o-----------------------------------|-----------------------------------o|
G|------------------------------------|------------------------------------|
D|--3---3-------3---5---5-------5-----|--6---6-------6---8---8-------8-----|
A|o-3---3-------3---5---5-------5-----|--6---6-------6---8---8-------8----o|
E|--1---1-------1---3---3-------3-----|--4---4-------4---6---6-------6-----|

    E   Q       E   E   Q       E        E   Q       E   E   Q       E
e|------------------------------------|------------------------------------|
B|------------------------------------|------------------------------------|
G|--10--10------10--5---5-------5-----|--6---6-------6---8---8-------8-----|
D|--x---x-------x---x---x-------x-----|--x---x-------x---x---x-------x-----|
A|--8---8-------8---3---3-------3-----|--4---4-------4---6---6-------6-----|
E|------------------------------------|------------------------------------|

    E   Q       E   E   Q       E        E  (Q.)        (H)
e|------------------------------------|------------------------------------|
B|------------------------------------|------------------------------------|
G|------------------------------------|------------------------------------|
D|--3---3-------3---3---3-------3-----|--3---------------------------------|
A|--3---3-------3---3---3-------3-----|--3---------------------------------|
E|--1---1-------1---1---1-------1-----|--1---------------------------------|

[Chorus 2]
  Gtr 1
    E   Q       E   E   Q       E        E   Q       Q       E   E   E 
e|------------------------------------|------------------------------------|
B|o-----------------------------------|------------------------------------|
G|----------------------10------8-----|--6---6-------6-------6---6---6-----|
D|--3---3-------3---3---10------8-----|--6---6-------6-------6---6---6-----|
A|o-3---3-------3---3---8-------6-----|--4---4-------4-------4---4---4-----|
E|--1---1-------1---1-----------------|------------------------------------|

    E   Q       E   E   Q       E        E   Q       Q       E   E   E 
e|------------------------------------|------------------------------------|
B|------------------------------------|------------------------------------|
G|------------------------------------|--6---6-------6-------6---6---6-----|
D|--3---3-------3---3---5-------6-----|--6---6-------6-------6---6---6-----|
A|--3---3-------3---3---5-------6-----|--4---4-------4-------4---4---4-----|
E|--1---1-------1---1---3-------4-----|------------------------------------|

    E   Q       E   E   Q       E        E   Q       Q       E   E   E 
e|------------------------------------|------------------------------------|
B|------------------------------------|------------------------------------|
G|----------------------10------8-----|--6---6-------6-------6---6---6-----|
D|--3---3-------3---3---10------8-----|--6---6-------6-------6---6---6-----|
A|--3---3-------3---3---8-------6-----|--4---4-------4-------4---4---4-----|
E|--1---1-------1---1-----------------|------------------------------------|

    E   Q       E   Q       E   E       +E   E   Q       Q       E   E     (x2)
e|------------------------------------|------------------------------------|
B|------------------------------------|-----------------------------------o|
G|--5---5-------5---5-------5---8-----|------8---8-------8-----------------|
D|--5---5-------5---5-------5---8-----|------8---8-------8-------6---5-----|
A|--3---3-------3---3-------3---6-----|------6---6-------6-------6---5----o|
E|------------------------------------|--------------------------4---3-----|

[Interlude]
Q = 164
  Gtr 1
    W                                    
e|------------------------------------|
B|------------------------------------|
G|------------------------------------|  [The tempo change happens at the beginning 
D|--3---------------------------------|   of this bar, not when the guitar comes in]
A|--3---------------------------------|
E|--1---------------------------------|

   +W                                    E   E   E   E   E   E   E   E
e|------------------------------------|------------------------------------|
B|------------------------------------|------------------------------------|
G|------------------------------------|------------------------------5-----|
D|------------------------------------|--3---3---3---3---3---3---3---5-----|
A|------------------------------------|--3---3---3---3---3---3---3---3-----|
E|------------------------------------|--1---1---1---1---1---1---1---------|
PM                                    |  .   .   .   .   .                 |

    E   S S S S E   S S S S E   E        E   S S S S E   S S S S E   E
e|------------------------------------|------------------------------------|
B|------------------------------------|------------------------------------|
G|--6---6-6-6-6-6---6-6-6-6-6---5-----|--8---8-8-8-8-8---8-8-8-8-8---6-----|
D|--6---6-6-6-6-6---6-6-6-6-6---5-----|--8---8-8-8-8-8---8-8-8-8-8---6-----|
A|--4---4-4-4-4-4---4-4-4-4-4---3-----|--6---6-6-6-6-6---6-6-6-6-6---4-----|
E|------------------------------------|------------------------------------|

    E   S S S S E   S S S S E   E        E    S  S  S  S  E    S  S  S  S  E    E
e|------------------------------------|-----------------------------------------------|
B|------------------------------------|-----------------------------------------------|
G|--8---8-8-8-8-8---8-8-8-8-8---6-----|--10---10-10-10-10-10---10-10-10-10-10---5-----|
D|--8---8-8-8-8-8---8-8-8-8-8---6-----|--10---10-10-10-10-10---10-10-10-10-10---5-----|
A|--6---6-6-6-6-6---6-6-6-6-6---4-----|--8----8--8--8--8--8----8--8--8--8--8----3-----|
E|------------------------------------|-----------------------------------------------|

    E   S S S S E   S S S S E   E        E   S S S S E   S S S S E   E
e|------------------------------------|------------------------------------|
B|------------------------------------|------------------------------------|
G|--6---6-6-6-6-6---6-6-6-6-6---5-----|--8---8-8-8-8-8---8-8-8-8-8---6-----|
D|--6---6-6-6-6-6---6-6-6-6-6---5-----|--8---8-8-8-8-8---8-8-8-8-8---6-----|
A|--4---4-4-4-4-4---4-4-4-4-4---3-----|--6---6-6-6-6-6---6-6-6-6-6---4-----|
E|------------------------------------|------------------------------------|

    E   S S S S E   S S S S E   E        E   E   E   E   E   E   Q 
e|------------------------------------|------------------------------------|
B|------------------------------------|------------------------------------|
G|--8---8-8-8-8-8---8-8-8-8-8---6-----|--10--10--10--10--10--10------------|
D|--8---8-8-8-8-8---8-8-8-8-8---6-----|--10--10--10--10--10--10------------|
A|--6---6-6-6-6-6---6-6-6-6-6---4-----|--8---8---8---8---8---8-------------|
E|------------------------------------|--------------------------16\-------|

    E   E   E   E   E   E   E   E        E   E   E   E   E   E   E   E
e|------------------------------------|------------------------------------|
B|------------------------------------|------------------------------------|
G|--13--13--13--13--13--13--13--13----|--12--12--12--12--15--15--15--15----|
D|--x---x---x---x---x---x---x---x-----|--x---x---x---x---x---x---x---x-----|
A|--11--11--11--11--11--11--11--11----|--10--10--10--10--13--13--13--13----|
E|------------------------------------|------------------------------------|

    E   E   E   E   E   E   E   E        E   E   E   E   E   E   E   E
e|------------------------------------|------------------------------------|
B|------------------------------------|------------------------------------|
G|--12--12--12--12--12--12--12--12----|--17--17--15--15--13--13--12--12----|
D|--x---x---x---x---x---x---x---x-----|--x---x---x---x---x---x---x---x-----|
A|--10--10--10--10--10--10--10--10----|--15--15--13--13--11--11--10--10----|
E|------------------------------------|------------------------------------|

    E   E   E   E   E   E   E   E        E   E   E   E   E   E   E   E
e|------------------------------------|------------------------------------|
B|------------------------------------|------------------------------------|
G|--13--13--13--13--13--13--13--13----|--12--12--12--12--15--15--15--15----|
D|--x---x---x---x---x---x---x---x-----|--x---x---x---x---x---x---x---x-----|
A|--11--11--11--11--11--11--11--11----|--10--10--10--10--13--13--13--13----|
E|------------------------------------|------------------------------------|

    E   E   E   E   E   E   E   E        E   E   E   E   E   E   E   E
e|------------------------------------|------------------------------------|
B|------------------------------------|------------------------------------|
G|--12--12--12--12--12--12--12--12----|--17--17--15--15--18--18--17--17----|
D|--x---x---x---x---x---x---x---x-----|--x---x---x---x---x---x---x---x-----|
A|--10--10--10--10--10--10--10--10----|--15--15--13--13--16--16--15--15----|
E|------------------------------------|------------------------------------|

    E   E   E   E   E   E   E   E        E   E   E   E   E   Q       E
e|------------------------------------|------------------------------------|
B|------------------------------------|------------------------------------|
G|--13--13--13--13--13--13--13--13----|--12--12--12--12--12----------------|
D|--x---x---x---x---x---x---x---x-----|--x---x---x---x---x---6-------5-----|
A|--11--11--11--11--11--11--11--11----|--10--10--10--10--10--6-------5-----|
E|------------------------------------|----------------------4-------3-----|

Q = 213
    E   Q       E   E   Q       E        E  (Q.)        (H)
e|------------------------------------|------------------------------------|
B|------------------------------------|------------------------------------|
G|------------------------------------|------------------------------------|
D|--3---3-------3---3---3-------3-----|--3---------------------------------|
A|--3---3-------3---3---3-------3-----|--3---------------------------------|
E|--1---1-------1---1---1-------1-----|--1---------------------------------|

[Chorus 3]
  Gtr 1
    E   Q       E   E   Q       E        E   Q       Q       E   E   E 
e|------------------------------------|------------------------------------|
B|o-----------------------------------|------------------------------------|
G|----------------------10------8-----|--6---6-------6-------6---6---6-----|
D|--3---3-------3---3---10------8-----|--6---6-------6-------6---6---6-----|
A|o-3---3-------3---3---8-------6-----|--4---4-------4-------4---4---4-----|
E|--1---1-------1---1-----------------|------------------------------------|

    E   Q       E   E   Q       E        E   Q       Q       E   E   E 
e|------------------------------------|------------------------------------|
B|------------------------------------|------------------------------------|
G|------------------------------------|--6---6-------6-------6---6---6-----|
D|--3---3-------3---3---5-------6-----|--6---6-------6-------6---6---6-----|
A|--3---3-------3---3---5-------6-----|--4---4-------4-------4---4---4-----|
E|--1---1-------1---1---3-------4-----|------------------------------------|

    E   Q       E   E   Q       E        E   Q       Q       E   E   E 
e|------------------------------------|------------------------------------|
B|------------------------------------|------------------------------------|
G|----------------------10------8-----|--6---6-------6-------6---6---6-----|
D|--3---3-------3---3---10------8-----|--6---6-------6-------6---6---6-----|
A|--3---3-------3---3---8-------6-----|--4---4-------4-------4---4---4-----|
E|--1---1-------1---1-----------------|------------------------------------|

    E   Q       E   Q       E   E       +E   E   Q       Q       E   E     (x2)
e|------------------------------------|------------------------------------|
B|------------------------------------|-----------------------------------o|
G|--5---5-------5---5-------5---8-----|------8---8-------8-----------------|
D|--5---5-------5---5-------5---8-----|------8---8-------8-------6---5-----|
A|--3---3-------3---3-------3---6-----|------6---6-------6-------6---5----o|
E|------------------------------------|--------------------------4---3-----|

On the second round the last two bars look like this:
    E   E  (E)  E   E  (E)  E   E       (E)  E   E  (E)  E  (E)  E   E
e|------------------------------------|------------------------------------|
B|------------------------------------|------------------------------------|
G|--5---5-------5---5-------5---8-----|------8---8-------8-----------------|
D|--5---5-------5---5-------5---8-----|------8---8-------8-------6---5-----|
A|--3---3-------3---3-------3---6-----|------6---6-------6-------6---5-----|
E|------------------------------------|--------------------------4---3-----|

    E
e|------------------------------------|
B|------------------------------------|
G|------------------------------------|
D|--3---------------------------------|
A|--3---------------------------------|
E|--1---------------------------------|



************************************

|  \   Slide down
|  x   Dead note
|  S   Sixteenth note
|  E   Eighth note
|  Q   Quarter note
|  H   Half note
|  W   Whole note
|  .   Dotted note
| (N)  Rest
|  +   Add note value
|o o|  Reprise

************************************

            
            
Suggest correction
Creating personal tab
Creating personal tab
You can edit any tab online and save it as your Personal.

You can edit, replace or remove any tab part or add personal notes – all changes will be seen only by you.

Personal tabs can be accessed anytime from any device, even offline.
Learn more »
Give kudos to tab author, rate the tab!
1 2 3 4 5
comments
print report bad tab
guest
You may want to rate the tab now too:
select rating
Wanna post a correction for this tab? Suggest correction