Oops, an error
Loading. Please wait.

Any Way You Want It Tab

version 2
version 2

Solo

2,896 views 1 this week
no commentswrite comment
1 2 3 4 5
excellent!
x 3
add to favorites
launch autoscroll
font size
0
reset
how to read this tab
guitar tuner
Autoscroll
slow
fast
+/-
esc
set tempo
stop
Help us to improve Ultimate-Guitar.com Take our survey!
×
Author
Difficulty
Tuning
intermediate
D# G# C# F# A# D#
Tabbed by: Joshua Garcia (joshuag523@@aol.com)

Tabs for the song: Anyway You Want It by Rise Against
Please rate and let me know if you have any corrections. Thank you.

No proper solo for Anyway You Want It by Rise Against, so I tabbed it out here.


Tuning: Half Step Down (D# G# C# F# A# D#)


D#||---------------------------------------------------------|
A#||---------------------------------------------------------|
F#||--14b16---14b16--14b16---14~--12-14--14b16--14p12-14p12--|
C#||---------------------------------------------------------|
G#||---------------------------------------------------------|
D#||---------------------------------------------------------|


D#||----------------------------------------------------|
A#||----------------------------------------------------|
F#||--14p12---------------------------------------------|
C#||--------14-14p12-14p12------------------------------|
G#||-----------------------14----14-12------------------|
D#||--------------------------12-------14p12-14p12-12~--|


D#||------------------------------------------------------------------------|
A#||------------------------------------------------------------------------|
F#||--11-12-14--14b16---14-12-14---12-11---------11-12-11--14b16--14-12-----|
C#||-------------------------------------12---14------------------------12--|
G#||------------------------------------------------------------------------|
D#||------------------------------------------------------------------------|




Tablature Legend
----------------
 h   hammer-on
 p   pull-off
 b   bend
 pb  pre-bend
 r   release bend
 ~   hold / vibrato
 .   palm mute
 /   slide up
 \   slide down
 *   pinch harmonic
 '   natural harmonic
 x   mute note
 T   tap
Suggest correction
Give kudos to tab author, rate the tab!
1 2 3 4 5
comments
print report bad tab
guest
You may want to rate the tab now too:
select rating
Wanna post a correction for this tab? Suggest correction