Oops, an error
Loading. Please wait.

Anyway You Want It Tab

version 3
version 3

Interactive

4,930 views 1 this week
1 commentread comment
1 2 3 4 5
please rate
add to favorites
launch autoscroll
font size
0
reset
how to read this tab
guitar tuner
Autoscroll
slow
fast
+/-
esc
set tempo
stop
Help us to improve Ultimate-Guitar.com Take our survey!
×
Author
I hope this sounds good, because this is my first tab. If something sounds wrong just comment to 
tell me what you're thinking. 

Intro:

E-------------------------------------------------------|
B-------------------------------------------------------|
G-------------------------------------------------------|
D----0-------44------0----------------------------------|
A----2-------44------2---------3--2-3-2-3-2-----0-2-0---|
E----3-------32------2----------------------3-3---------|

E-------------------------------------------------------|
B-------------------------------------------------------|
G-------------------------------------------------------|
D-------------------------------------------------------|
A--3-2--------------------------------------------------|
E------3-3----------------------------------------------|

Verse: Do this four times for each verse

E-------------------------------------------------------|
B-------------------------------------------------------|
G-------------------------------------------------------|
D--4-4------2-2-----------------------------------------|
A--4-4------2-2-------3--2-3-2-3-2----------------------|
E--2-2------0-0--------------------3-3------------------|

Chorus: 

E-------------------------------------------------------|
B-------------------------------------------------------|
G-------------------------------------------------------|
D-------------------------------------------------------|
A-----------------------------------3--2-3-2-3-2--------|
E---33333333--22222222--00000000-----------------3-3----|

E-------------------------------------------------------|
B-------------------------------------------------------|
G-------------------------------------------------------|
D--------------------------------------0-2-0------------|
A-----------------------------------3--------3-2--------|
E---33333333--22222222--00000000-----------------3-3----|

Solo: (This is the guitar playing in the background not the solo guitar) Play this four times 
during the solo.

E-------------------------------------------------------|
B-------------------------------------------------------|
G-------------------------------------------------------|
D-------------------------------------------------------|
A-----------------------------------3--2-3-2-3-2--------|
E---33333333--22222222--00000000-----------------3-3----|

Here are the lyrics if you want to sing along:

Any way you want it
That's the way you need it
Anyway you want it

She loves to dance
She loves to sing
She does everything
She loves to move
She loves to groove
She loves a lot of things

All night
All night
Oh every night
So hold tight
Hold tight
Oh baby hold tight

She said any way you want it
That's the way you need it
Any way you want it

Any way you want it
That's the way you need it
Any way you want it

I was alone
I never knew
What good love could do
Then we touched
And we sang
About the lovely things

All night
All night
Oh every night
So hold tight
Hold tight
Oh baby hold tight

She said any way you want it
That's the way you need it
Any way you want it

She said any way you want it
That's the way you need it
Any way you want it

She said all night
All night
All night
Oh baby hold tight

Any way you want it
That's the way you need it
Any way you want it

And she said any way you want it
That's the way you need it
Any way you want it

She said any way you want it
That's the way you need it
Any way you want it

She said any way you want it
That's the way you need it
Any way you want it

Oh every night

Any way you want it
That's the way you need it
Any way you want it

Oh baby hold tight

Any way you want it
That's the way you need it
Any way you want it

Oh every night 
Suggest correction
What's this?
You can suggest a correction to this tab. Community and Mods will review your correction and vote to approve or reject it.
comments
We did not receive enough feedback on this tab! Please rate:
print report bad tab
1 2 3 4 5
1 comment total.
0 reply
Tiaan V2 45 wrote on October 20 2013, 01:40 am

Thanx for a great tab, just need to check tuning its a half step down. If anyone don't like this tab its because thy can't figure out the timing, thanx again for your effort

guest
You may want to rate the tab now too:
select rating
Please do not post tabs as comments. Select "correction" instead!