Oops, an error
Loading. Please wait.

Anyway You Want It Tab

version 4
version 4

Interactive

36,185 views 18 this week
7 commentsread comments
1 2 3 4 5
accurate
x 20
add to favorites
launch autoscroll
font size
0
reset
how to read this tab
guitar tuner
Autoscroll
slow
fast
+/-
esc
set tempo
stop
Help us to improve Ultimate-Guitar.com Take our survey!
×
Difficulty
novice
Rise Against
Anyway You Want It
Difficulty:  Easy
Tabbed by: BTH Guitarist
Tuning: Eb Ab Db Gb Bb Eb


Intro:

Eb-------------------------------------------------------|
Bb-------------------------------------------------------|
Gb-------------------------------------------------------|
Db----5--44--22--------------------020-------------------|
Ab----5--44--22--------323232----3-----320---------------|
Eb----3--22--00---------------3-------------3------------|

Verse:

Eb-------------------------------------------------------|
Bb-------------------------------------------------------|
Gb-------------------------------------------------------|     X4
Db----5xxxxx----4xxxxx----2xxxxx-------------------------|
Ab----5xxxxx----4xxxxx----2xxxxx----323232---------------|
Eb----3xxxxx----2xxxxx----0xxxxx------------03-----------|

Chorus:

Eb-------------------------------------------------------|
Bb-------------------------------------------------------|
Gb-------------------------------------------------------|
Db----555555--444444--000000-----------------------------|
Ab----555555--444444--000000----323232-------------------|
Eb----333333--222222--000000-----------03—---------------|

Eb-------------------------------------------------------|
Bb-------------------------------------------------------|
Gb-------------------------------------------------------|
Db----555555--444444--000000------020--------------------|
Ab----555555--444444--000000----3-----320----------------|
Eb----333333--222222--000000--------------3--------------|


After chorus, it’s back to verse

Solo:

I don’t know the solo, but I do know that the rythem plays the first part of the chorus

Eb--------------------------------------------------------|
Bb--------------------------------------------------------|
Gb--------------------------------------------------------|
Db----555555--444444--000000------------------------------|
Ab----555555--444444--000000----323232--------------------|
Eb----333333--222222--000000-----------03—----------------|


Keep playing that part till end of the song.

Good Luck!
Suggest correction
comments
print report bad tab
7 comments total. Showing first comments.
0 reply
RiseAgainst77 10 wrote on May 2 2007, 01:20 pm

awesome, tab. the solo is something like this...

|------------------|--------------------|
|--9^-9^-9^-9^--7~-|-7-9-9^--9p7--9p7~--|
|------------------|--------------------|
|------------------|--------------------|
|------------------|--------------------|
|------------------|--------------------|

|---------------------------------------------------|
|--9p7----------------------------------------------|
|------8-6-8-6--------------------------------------|
|--------------8-6-8-6-------6----------------------|
|----------------------8-6-8----8-6-8-6-------------|
|---------------------------------------7-10-7/5~---|

|------------------------------------------------------|
|-------7-9-7-9^--9-7-9^-9-7-------7-9-7-9--9^-9-7-----|
|---7-9----------------------7~--9-----------------7~--|
|-9----------------------------------------------------|
|------------------------------------------------------|
|------------------------------------------------------|

oh and by the way, more spacing on the strumming on the 232323 part

-1 reply
Kjoyea 10 wrote on August 26 2007, 08:31 pm

great tab except the verse is

Eb-------------------------------------------------------|
Bb-------------------------------------------------------|
Gb-------------------------------------------------------| X4
Db----5xxxxx----44xxxx----22xxxx-------------------------|
Ab----5xxxxx----44xxxx----22xxxx----323232---------------|
Eb----3xxxxx----22xxxx----00xxxx------------03-----------|
but thats not off by much so great job
5/5 by me

0 reply
madmetalmike 57 wrote on January 10 2008, 07:42 pm

yah this is like 95% right, so great job!

guest
You may want to rate the tab now too:
select rating
Wanna post a correction for this tab? Suggest correction