Oops, an error
Loading. Please wait.

Anyway You Want It Tab

version 5
version 5

Interactive

3,285 views 3 this week
2 commentsread comments
1 2 3 4 5
please rate
add to favorites
launch autoscroll
font size
0
reset
how to read this tab
guitar tuner
Autoscroll
slow
fast
+/-
esc
set tempo
stop
Help us to improve Ultimate-Guitar.com Take our survey!
×
Author
Difficulty
intermediate
Intro:

Eb-------------------------------------------------------|
Bb-------------------------------------------------------|
Gb-------------------------------------------------------|
Db----5--44--22--------------------020-------------------|
Ab----5--44--22--------323232----3-----320---------------|
Eb----3--22--00---------------3-------------3------------|

Verse:

Eb---------------------------------------------------------|
Bb---------------------------------------------------------|
Gb---------------------------------------------------------|     X4
Db----5xxxxx----44xxxxx----22xxxxx-------------------------|
Ab----5xxxxx----44xxxxx----22xxxxx----323232---------------|
Eb----3xxxxx----22xxxxx----00xxxxx------------03-----------|

Chorus:

Eb-------------------------------------------------------|
Bb-------------------------------------------------------|
Gb-------------------------------------------------------|
Db----555555--444444--000000-----------------------------|
Ab----555555--444444--000000----323232-------------------|
Eb----333333--222222--000000-----------03—---------------|

Eb-------------------------------------------------------|
Bb-------------------------------------------------------|
Gb-------------------------------------------------------|
Db----555555--444444--000000------020--------------------|
Ab----555555--444444--000000----3-----320----------------|
Eb----333333--222222--000000--------------3--------------|

Solo:
eb|------------------|--------------------|
Bb|--9^-9^-9^-9^--7~-|-7-9-9^--9p7--9p7~--|
Gb|------------------|--------------------|
Db|------------------|--------------------|
Ab|------------------|--------------------|
Eb|------------------|--------------------|

|---------------------------------------------------|
|--9p7----------------------------------------------|
|------8-6-8-6--------------------------------------|
|--------------8-6-8-6-------6----------------------|
|----------------------8-6-8----8-6-8-6-------------|
|---------------------------------------7-10-7/5~---|

|------------------------------------------------------|
|-------7-9-7-9^--9-7-9^-9-7-------7-9-7-9--9^-9-7-----|
|---7-9----------------------7~--9-----------------7~--|
|-9----------------------------------------------------|
|------------------------------------------------------|
|------------------------------------------------------|

((might need some work on it=]))

Eb--------------------------------------------------------|
Bb--------------------------------------------------------|
Gb--------------------------------------------------------|
Db----555555--444444--000000------------------------------|
Ab----555555--444444--000000----323232--------------------|
Eb----333333--222222--000000-----------03—----------------|


continue this after solo =]
Suggest correction
Give kudos to tab author, rate the tab!
1 2 3 4 5
comments
print report bad tab
2 comments total.
0 reply
syn9809 31 wrote on November 2 2008, 11:56 pm

if you just had the end solo this would be a great tab, but 4/5

0 reply
PuRs3l 26 wrote on October 9 2009, 12:42 pm

You stole everything else from other tabs except the solo. boo! 2/5

guest
You may want to rate the tab now too:
select rating
Please do not post tabs as comments. Select "correction" instead!