Oops, an error
Loading. Please wait.

Anywhere But Here Tab

version 5
version 5

Whole song

Interactive

3,830 views 1 this week
1 commentread comment
1 2 3 4 5
please rate
add to favorites
launch autoscroll
font size
0
reset
how to read this tab
guitar tuner
Tab Pro tools
  • play this tab
  • loop segment
  • change instrument
  • show fretboard
  • metronome
×
Best way to learn
"Anywhere But Here"
Autoscroll
slow
fast
+/-
esc
set tempo
stop
Contributor
Band: Rise Against
Song: Anywhere But Here
Album: Siren Song Of The Counter Cult


This is my first tab I hope you like it


INTRO
Guitar 1                          x3
e|--------------------------------|--------------------------------|
B|--------------------------------|--------------------------------|
G|--------------------------------|3-3-3-3-3-3-3-3-3-3-3-3-3-3-3-3-|
D|1-1-1-1-1-1-1-1-6-6-6-6-6-6-6-6-|3-3-3-3-3-3-3-3-3-3-3-3-3-3-3-3-|
A|1-1-1-1-1-1-1-1-6-6-6-6-6-6-6-6-|1-1-1-1-1-1-1-1-1-1-1-1-1-1-1-1-|
D|1-1-1-1-1-1-1-1-6-6-6-6-6-6-6-6-|--------------------------------|

Guitar 2                                  x3
e|----------------------------------------|--------------------------------------------|
B|----------------------------------------|11-11-11-11-11-11-11------------------------|
G|12-12-12-12-10-10-12-12-8-8-8-8-7-7-7-7-|x--x--x--x--x--x--x--13-12-12-12-10-8-8-8-8-|
D|x--x--x--x--x--x--x--x--6-6-6-6-6-6-6-6-|8--8--8--8--8--8--8--x--x--x--x--x--x-x-x-x-|
A|10-10-10-10-8--8--10-10-----------------|---------------------11-10-10-10-8--6-6-6-6-|
D|----------------------------------------|--------------------------------------------|

VERSE 1                                                           x4
e|----------------------------------------------------------------|
B|----------------------------------------------------------------|
G|5-5-5-5-5-5-5-5-----------------8-8-8-8-8-8-8-8-----------------|
D|5-5-5-5-5-5-5-5-6-6-6-6-6-6-6-6-8-8-8-8-8-8-8-8-8-8-8-8-8-8-8-8-|
A|3-3-3-3-3-3-3-3-6-6-6-6-6-6-6-6-6-6-6-6-6-6-6-6-8-8-8-8-8-8-8-8-|
D|----------------6-6-6-6-6-6-6-6-----------------8-8-8-8-8-8-8-8-|

PRE CHORUS 

e|----------------------------------------------------------------|
B|----------------------------------------------------------------|
G|5x--------------3~----------------------------------------------|
D|5x--------------3~--------------6x--------------8~--------------|
A|3x--------------1~--------------6x--------------8~--------------|
D|--------------------------------6x--------------8~--------------|

CHORUS      
Same as Intro

VERSE 2           x4
e|----------------|
B|----------------|
G|5~----------3~--|
D|5~--6~--1~--3~--|
A|3~--6~--1~--1~--|
D|----6~--1~------|

PRE CHORUS

CHORUS

VERSE 3  
Guitar 1          x4
e|----------------|
B|----------------|
G|5~----------3~--|
D|5~--6~--1~--3~--|
A|3~--6~--1~--1~--|
D|----6~--1~------|

Guitar 2          x16
e|----------------|
B|--3-4---3-4-3-4-|
G|3------3--------|
D|----------------|
A|----------------|
D|----------------|

CHORUS

After the chorus singer repeats "still filled with you"
e|--------------------------------|
B|--------------------------------|
G|--------------------------------|
D|6-6-6-6-6-6-6-6-6-6-6-6-6-6-6-6-|
A|6-6-6-6-6-6-6-6-6-6-6-6-6-6-6-6-|
D|6-6-6-6-6-6-6-6-6-6-6-6-6-6-6-6-|

VERSE 4
(Verse 3 but)
Guitar 1 x2
Guitar 2 x8

ENDING
Guitar 1
e|----||
B|----||
G|----||
D|1~--||
A|1~--||
D|1~--||

Guitar 2
e|----||
B|----||
G|3~--||
D|----||
A|----||
D|----||

comments
We did not receive enough feedback on this tab! Please rate:
print report bad tab
1 2 3 4 5
1 comment total.
0 reply
neorequiem wrote on December 23 2008, 09:13 pm

awesome tabb! damnn u did a great job.. keep it going;)

I want to post or [tab]
guest
You may want to rate the tab now too:
select rating
Please do not post tabs as comments. Select "correction" instead!