Oops, an error
Loading. Please wait.

Approaching Curve Tab

version 2
version 2

Whole song

Interactive

750 views 3 this week
no commentswrite comment
1 2 3 4 5
please rate
add to favorites
launch autoscroll
font size
0
reset
how to read this tab
guitar tuner
Autoscroll
slow
fast
+/-
esc
set tempo
stop
Help us to improve Ultimate-Guitar.com Take our survey!
×
Author
Song:The Approaching Curve
Artist: Rise Against
Album: The Sufferer and the Witness


Intro:

E|-----------------------------------------------------------------|
B|-----------------------------------------------------------------|
G|-6----6-6-6-6-6-6-6-6-6-6-6-6-6-6-6-6-6-6-6-6-6-6-5-5-5-5-5-5-5-5|
D|-6----6-6-6-6-6-6-6-6-6-6-6-6-6-6-6-6-6-6-6-6-6-6-6-6-6-6-6-6-6-6|
A|-4----4-4-4-4-4-4-4-4-4-4-4-4-4-4-4-4-4-4-6-6-6-6-3-3-3-3-3-3-3-3|
E|-----------------------------------------------------------------|

E|---------------------------------------------------|
B|---------------------------------------------------|
G|-------------------------------------------------5~|
D|-4-4-4-4-4-4-4-4-4-4-4-4-4-4-4-4-4-4-4-4-4-4-4-4-6~|
A|-4-4-4-4-4-4-4-4-4-4-4-4-4-4-4-4-4-4-4-4-4-4-4-4-3~|
E|-2-2-2-2-2-2-2-2-2-2-2-2-2-2-2-2-2-2-2-2-2-2-2-2---|

I Haven't figured out the guitar that plays over the top but I'm pretty sure these are 
the chords played underneath.
Verse 1:
E|-------------------------------------------------------|
B|-------------------------------------------------------|
G|-3-3-3--3-3-3--3-3-3--3-3-3----------------------------|
D|-3-3-3--3-3-3--3-3-3--3-3-3-4-4-4--4-4-4--4-4-4--4-4-4-|
A|-1-1-1--1-1-1--1-1-1--1-1-1-4-4-4--4-4-4--4-4-4--4-4-4-|
E|----------------------------2-2-2--2-2-2--2-2-2--2-2-2-|x3

E|---------------------------------------------------------|
B|---------------------------------------------------------|
G|---------------------------------------------------------|
D|-4-4-4-4-4-4-4-4-4-4-4-4-4-4-4-4-4-4-4-4-4-4-4-4-4-4-4-4-|
A|-4-4-4-4-4-4-4-4-4-4-4-4-4-4-4-4-4-4-4-4-4-4-4-4-4-4-4-4-|
E|-2-2-2-2-2-2-2-2-2-2-2-2-2-2-2-2-2-2-2-2-2-2-2-2-2-2-2-2-|x1

Verse 2:
E|-------------------------------------------------------|
B|-------------------------------------------------------|
G|-3-3-3--3-3-3--3-3-3--3-3-3----------------------------|
D|-3-3-3--3-3-3--3-3-3--3-3-3-4-4-4--4-4-4--4-4-4--4-4-4-|
A|-1-1-1--1-1-1--1-1-1--1-1-1-4-4-4--4-4-4--4-4-4--4-4-4-|
E|----------------------------2-2-2--2-2-2--2-2-2--2-2-2-|x3


E|---------------------------------------------------------|
B|---------------------------------------------------------|
G|---------------------------------------------------------|
D|-4-4-4-4-4-4-4-4-4-4-4-4-4-4-4-4-6-6-6-6-6-6-6-6-6-6-6-6-|
A|-4-4-4-4-4-4-4-4-4-4-4-4-4-4-4-4-6-6-6-6-6-6-6-6-6-6-6-6-|
E|-2-2-2-2-2-2-2-2-2-2-2-2-2-2-2-2-4-4-4-4-4-4-4-4-4-4-4-4-|

Chorus: (Triplets)
E|-------------------------------------------------|
B|-------------------------------------------------|
G|-6-6-6-6-6-6-------------------------------------|
D|-6-6-6-6-6-6-6-6-6-6-6-6-8-8-8-8-8-8-8-8-8-8-8-8-|
A|-4-4-4-4-4-4-6-6-6-6-6-6-8-8-8-8-8-8-8-8-8-8-8-8-|
E|-------------4-4-4-4-4-4-6-6-6-6-6-6-6-6-6-6-6-6-|x2

E|-------------------------------------------------|
B|-------------------------------------------------|
G|-6-6-6-6-6-6-------------------------------------|
D|-6-6-6-6-6-6-6-6-6-6-6-6-3-3-3-3-3-3-4-4-4-4-4-4-|
A|-4-4-4-4-4-4-6-6-6-6-6-6-3-3-3-3-3-3-4-4-4-4-4-4-|
E|-------------4-4-4-4-4-4-1-1-1-1-1-1-2-2-2-2-2-2-|x1

E|-------------------------------------------------|
B|-------------------------------------------------|
G|-6-6-6-6-6-6-------------------------------------|
D|-6-6-6-6-6-6-6-6-6-6-6-6-8~----------------------|
A|-4-4-4-4-4-4-6-6-6-6-6-6-8~----------------------|
E|-------------4-4-4-4-4-4-6~----------------------|x1

Verse 3:
E|-------------------------------------------------------|
B|-------------------------------------------------------|
G|-3-3-3--3-3-3--3-3-3--3-3-3----------------------------|
D|-3-3-3--3-3-3--3-3-3--3-3-3-4-4-4--4-4-4--4-4-4--4-4-4-|
A|-1-1-1--1-1-1--1-1-1--1-1-1-4-4-4--4-4-4--4-4-4--4-4-4-|
E|----------------------------2-2-2--2-2-2--2-2-2--2-2-2-|x3

E|---------------------------------------------------------|
B|---------------------------------------------------------|
G|---------------------------------------------------------|
D|-4-4-4-4-4-4-4-4-4-4-4-4-4-4-4-4-4-4-4-4-4-4-4-4-4-4-4-4-|
A|-4-4-4-4-4-4-4-4-4-4-4-4-4-4-4-4-4-4-4-4-4-4-4-4-4-4-4-4-|
E|-2-2-2-2-2-2-2-2-2-2-2-2-2-2-2-2-2-2-2-2-2-2-2-2-2-2-2-2-|x1

Verse 4:
E|-------------------------------------------------------|
B|-------------------------------------------------------|
G|-3-3-3--3-3-3--3-3-3--3-3-3----------------------------|
D|-3-3-3--3-3-3--3-3-3--3-3-3-4-4-4--4-4-4--4-4-4--4-4-4-|
A|-1-1-1--1-1-1--1-1-1--1-1-1-4-4-4--4-4-4--4-4-4--4-4-4-|
E|----------------------------2-2-2--2-2-2--2-2-2--2-2-2-|x3


E|---------------------------------------------------------|
B|---------------------------------------------------------|
G|---------------------------------------------------------|
D|-4-4-4-4-4-4-4-4-4-4-4-4-4-4-4-4-6-6-6-6-6-6-6-6-6-6-6-6-|
A|-4-4-4-4-4-4-4-4-4-4-4-4-4-4-4-4-6-6-6-6-6-6-6-6-6-6-6-6-|
E|-2-2-2-2-2-2-2-2-2-2-2-2-2-2-2-2-4-4-4-4-4-4-4-4-4-4-4-4-|

Chorus: (Triplets)
E|-------------------------------------------------|
B|-------------------------------------------------|
G|-6-6-6-6-6-6-------------------------------------|
D|-6-6-6-6-6-6-6-6-6-6-6-6-8-8-8-8-8-8-8-8-8-8-8-8-|
A|-4-4-4-4-4-4-6-6-6-6-6-6-8-8-8-8-8-8-8-8-8-8-8-8-|
E|-------------4-4-4-4-4-4-6-6-6-6-6-6-6-6-6-6-6-6-|x2

E|-------------------------------------------------|
B|-------------------------------------------------|
G|-6-6-6-6-6-6-------------------------------------|
D|-6-6-6-6-6-6-6-6-6-6-6-6-3-3-3-3-3-3-4-4-4-4-4-4-|
A|-4-4-4-4-4-4-6-6-6-6-6-6-3-3-3-3-3-3-4-4-4-4-4-4-|
E|-------------4-4-4-4-4-4-1-1-1-1-1-1-2-2-2-2-2-2-|x1

E|-------------------------------------------------|
B|-------------------------------------------------|
G|-6-6-6-6-6-6-------------------------------------|
D|-6-6-6-6-6-6-6-6-6-6-6-6-8~----------------------|
A|-4-4-4-4-4-4-6-6-6-6-6-6-8~----------------------|
E|-------------4-4-4-4-4-4-6~----------------------|x1

I Haven't got the little interlude riff yet...
Bridge: (Triplets)
E|-------------------------|  |----|
B|-------------------------|  |----|
G|-------------------------|  |-8-5|
D|-8-8-8-4-4-4-6-6-6-4-4-4-|  |----|
A|-8-8-8-4-4-4-6-6-6-4-4-4-|  |----|
E|-6-6-6-2-2-2-4-4-4-2-2-2-|x3|----|

E|-------------------------|
B|-------------------------|
G|-------------------------|
D|-8-8-8-4-4-4-6-6-6-4-4-4-|
A|-8-8-8-4-4-4-6-6-6-4-4-4-|
E|-6-6-6-2-2-2-4-4-4-2-2-2-|x1

E|---------------------------------|
B|---------------------------------|
G|---------------------------------|
D|-4-4-4-4-4-4-4-4-4-4-4-4-4-4-4-4-|
A|-4-4-4-4-4-4-4-4-4-4-4-4-4-4-4-4-|
E|-2-2-2-2-2-2-2-2-2-2-2-2-2-2-2-2-|


Chorus: (Triplets)
E|-------------------------------------------------|
B|-------------------------------------------------|
G|-6-6-6-6-6-6-------------------------------------|
D|-6-6-6-6-6-6-6-6-6-6-6-6-8-8-8-8-8-8-8-8-8-8-8-8-|
A|-4-4-4-4-4-4-6-6-6-6-6-6-8-8-8-8-8-8-8-8-8-8-8-8-|
E|-------------4-4-4-4-4-4-6-6-6-6-6-6-6-6-6-6-6-6-|x2

E|-------------------------------------------------|
B|-------------------------------------------------|
G|-6-6-6-6-6-6-------------------------------------|
D|-6-6-6-6-6-6-6-6-6-6-6-6-3-3-3-3-3-3-4-4-4-4-4-4-|
A|-4-4-4-4-4-4-6-6-6-6-6-6-3-3-3-3-3-3-4-4-4-4-4-4-|
E|-------------4-4-4-4-4-4-1-1-1-1-1-1-2-2-2-2-2-2-|x1

E|-------------------------------------------------|
B|-------------------------------------------------|
G|-6-6-6-6-6-6-------------------------------------|
D|-6-6-6-6-6-6-6-6-6-6-6-6-8~----------------------|
A|-4-4-4-4-4-4-6-6-6-6-6-6-8~----------------------|
E|-------------4-4-4-4-4-4-6~----------------------|x1

Outro:
E|-----------------------------------------------------------------|
B|-----------------------------------------------------------------|
G|-6----6-6-6-6-6-6-6-6-6-6-6-6-6-6-6-6-6-6-6-6-6-6-5-5-5-5-5-5-5-5|
D|-6----6-6-6-6-6-6-6-6-6-6-6-6-6-6-6-6-6-6-6-6-6-6-6-6-6-6-6-6-6-6|
A|-4----4-4-4-4-4-4-4-4-4-4-4-4-4-4-4-4-4-4-6-6-6-6-3-3-3-3-3-3-3-3|
E|-----------------------------------------------------------------|

E|---------------------------------------------------|
B|---------------------------------------------------|
G|-------------------------------------------------5~|
D|-4-4-4-4-4-4-4-4-4-4-4-4-4-4-4-4-4-4-4-4-4-4-4-4-6~|
A|-4-4-4-4-4-4-4-4-4-4-4-4-4-4-4-4-4-4-4-4-4-4-4-4-3~|
E|-2-2-2-2-2-2-2-2-2-2-2-2-2-2-2-2-2-2-2-2-2-2-2-2---|
Suggest correction
Give kudos to tab author, rate the tab!
1 2 3 4 5
comments
print report bad tab
guest
You may want to rate the tab now too:
select rating
Please do not post tabs as comments. Select "correction" instead!