Oops, an error
Loading. Please wait.

Art Of Losing Tab

version 2
version 2

Whole song

410 views 3 this week
no commentswrite comment
1 2 3 4 5
3 more votes to show rating
add to favorites
launch autoscroll
font size
0
reset
how to read this tab
guitar tuner
Autoscroll
slow
fast
+/-
esc
set tempo
stop
Help us to improve Ultimate-Guitar.com Take our survey!
×
Author
Rise Against - The Art of Losing
Tabbed by Will Creary

#=X3
^=let ring
m=palm mute

intro
----------------|
--------------#-|
--^----^---9-7--|
-2----2----9-7--|
-2--2------7-5--|
-2--------------|
verse
----------------------------------------------------------|
----------------------------------------------------------|
-9-7-9-10-9-7--9-7-9-10-9-7--9-7-9-10-9-7--12-11-9-10-9-7-| X2
-9-7-9-10-9-7--9-7-9-10-9-7--9-7-9-10-9-7--12-11-9-10-9-7-|
-7-5-7--8-7-5--7-5-7--8-7-5--7-5-7--8-7-5--10--9-7--8-7-5-|
----------------------------------------------------------|

chorus
----------------------m-------------------------------------|
--#-----------#-----------#-----------#-------------------#-|
-5---#--#--#-5---#--#--#-5---#--#--#-5---#--#--------^---7--|
-5--5--9--9--5--5--9--7--5--5--9--9--5--5--9--9-7-5-2----7--|
-3--5--9--9--3--5--9--7--3--5--9--9--3--5--9--9-7-5-2----5--|
----5--9--9-----5--9--7-----5--9--9-----5--9--9-7-5-2-------|

verse

chorus
----------------------m----------------------------------------|
--#-----------#-----------#-----------#-------------------#--^-|
-5---#--#--#-5---#--#--#-5---#--#--#-5---#--#--------^---7--9--|
-5--5--9--9--5--5--9--7--5--5--9--9--5--5--9--9-7-5-2----7--9--|
-3--5--9--9--3--5--9--7--3--5--9--9--3--5--9--9-7-5-2----5--7--|
----5--9--9-----5--9--7-----5--9--9-----5--9--9-7-5-2----------|

bridge
------------------------------------------------------|
------------------------------------------------------|
--#-5--#----#-4-5-4-2-4--#-5--#---#-4-5-4-2-4---2-----| X2
-2--5-5--2-2--4-5-4-2-4-2--5-5---2--4-5-4-2-4-5-2-2---|
-2--3-5--2-2--2-3-2-0-2-2--3-5---2--2-3-2-0-2-5-0-2---|
-2----5--2-2------------2----5---2------------5---2---|

-m--m-m--m-m--m-m-m-m-m-m--m-m---m------------------|
----------------------------------------------------|
--#-5--#----#-4-5-4-2-4--#-5--#---#-4-5-4-2-4---2---| X2
-2--5-5--2-2--4-5-4-2-4-2--5-5---2--4-5-4-2-4-5-2-2-|
-2--3-5--2-2--2-3-2-0-2-2--3-5---2--2-3-2-0-2-5-0-2-|
-2----5--2-2------------2----5---2------------5---2-|

----------------------------------------------------|
----------------------------------------------------|
--#-5--#----#-4-5-4-2-4--#-5--#---#-4-5-4-2-4---2---|
-2--5-5--2-2--4-5-4-2-4-2--5-5---2--4-5-4-2-4-5-2-2-|
-2--3-5--2-2--2-3-2-0-2-2--3-5---2--2-3-2-0-2-5-0-2-|
-2----5--2-2------------2----5---2------------5---2-|

--------------------------------------------m-m-m-m----m-m-|
-----------------------------------------------------------|
--#-5--#----#-4-5-4-2-4--#-5--#---#-4-5-4-2-4---2----^-----|
-2--5-5--2-2--4-5-4-2-4-2--5-5---2--4-5-4-2-4-5-2-2-2--2-2-|
-2--3-5--2-2--2-3-2-0-2-2--3-5---2--2-3-2-0-2-5-0-2-2--2-2-|
-2----5--2-2------------2----5---2------------5---2-2--2-2-|
Suggest correction
Give kudos to tab author, rate the tab!
1 2 3 4 5
comments
print report bad tab
guest
You may want to rate the tab now too:
select rating
Wanna post a correction for this tab? Suggest correction