Oops, an error
Loading. Please wait.

Audience Of One Bass Tab

version 1
version 1

Whole song

Interactive

15,382 views 1 this week
1 commentread comment
1 2 3 4 5
x 9
add to favorites
launch autoscroll
font size
0
reset
guitar tuner
Autoscroll
slow
fast
+/-
esc
set tempo
stop
Help us to improve Ultimate-Guitar.com Take our survey!
×
Author
Difficulty
novice
Intro/verse  x4 (Brackets just at the last bit before Pre C)
G|---------------------|
D|---------------------|
A|4>--------------(44)-|
E|----4>--6>--2>-------|

Pre Chorus  x1
G|-------------------------------------------|
D|-----------------------------------4-------|
A|---------4-44-444-----------------4--------|
E|2-22-222----------0-00-0000--6-66----2>-4>-|

Chorus  x4
G|------------|
D|------------|
A|------4>----|
E|6>-2>----4>-|

(Where have they gone?)
G|----------------|
D|----------------|
A|--------------4-|
E|6-4-2~---6-44---|

Verse  x2

Pre Chorus  x1

Chorus  x4

G|--------|
D|--------|
A|--------|
E|6-4-2~--|

Guitar does its thing

Breakdown  x3
G|------------------------------|
D|------------------------------|
A|----4-------------4--6-8-9-6~-|
E|6-2----6-2-4--6-2-------------|

Build up
G|--------------------|
D|------------------4-|
A|------------4-3-0---|
E|2--4--6--4----------|

Chorus  x4

Ending (That last bit is  right at the end youll hear it)
G|------------------|
D|------------------|
A|---------------4~-|
E|6-4-2-~----6-2----|

Please rate and comment.



Suggest correction
comments
print report bad tab
1 comment total.
+2 reply
sr305dx 10 May 17, 2009 11:53 PM

its really confusing and doesnt make sense

guest
You may want to rate the tab now too:
select rating
Wanna post a correction for this tab? Suggest correction