Oops, an error
Loading. Please wait.

Audience Of One Tab

version 1
version 1

Whole song

Interactive

104,827 views 36 this week
8 commentsread comments
1 2 3 4 5
x 10
add to favorites
launch autoscroll
font size
0
reset
how to read this tab
guitar tuner
backing track
0:00
0:00
×
Best way to learn
"Audience Of One"
Autoscroll
slow
fast
+/-
esc
set tempo
stop
Author
Difficulty
Tuning
  follow
intermediate
D# G# C# F# A# D#
                             AUDIENCE OF ONE - Rise Against
           Appeal To Reason
This is my first tab so its just a basic outline of the song not including the 
small lead fills throughout. enjoy and let me no how it is!

Tabbed by: Adam
Email: adam.timmy@gmail.com
Tuning: Standard - 1/2 step down         
thanks to stockylachy for the correction        
                                                
 [Intro]
D#|---------------------------------------------|
A#|10--10--10--10--10-10-10--10--10--10--10--10-|
F#|--77--77--77--77--7-----77--77--77--77--7----|
C#|---------------------------------------------|
G#|---------------------------------------------|
D#|---------------------------------------------|

 (Full Band In) INTRO CONT.
 [LEAD] (0:07)
D#|------------------------------------------------------------|
A#|------------------------------------------------------------|
F#|9--11--9--11--11/14--11--9--11--9--6--7--6--7--6/4---2/4----|
C#|----------------------------------------------------------5-|
G#|7--9---7--9----9/12---9--7---9--7--4--5--4--5--4/2---0/2----|
D#|----------------------------------------------------------3-|

D#|------------------------------------------------------------|
A#|------------------------------------------------------------|
F#|9--11--9--11--11/14--11--9--11--9--6--7--6--7--6--7--7/9--7-|
C#|------------------------------------------------------------|
G#|7---9--7---9---9/12---9--7---9--7--4--5--4--5--4--5--5/7--5-|
D#|------------------------------------------------------------|

 INTRO CONT.
 [RHYTHM] (0:07)
D#|--------------|--------------|
A#|--------------|--------------|
F#|7-------------|7-------------|
C#|7---7---9---5-|7---7---9---5-|
G#|5---7---9---5-|5---7---9---5-|
D#|----5---7---3-|----5---7---3-|

 [VERSE] x2 (0:31)
D#|--------------|
A#|--------------|
F#|7-------------|
C#|7---7---9---5-|
G#|5---7---9---5-|
D#|----5---7---3-|

 [PRE-CHORUS] (0:54)
D#|--------------|--------------|
A#|--------------|--------------|
F#|--------7-----|--------------|
C#|9---5---7---2-|9---5---7-----|
G#|9---5---5---2-|9---5---7-----|
D#|7---3-------0-|7---3---5-----|

 [Chorus]
 [LEAD] x4  (1:05)
D#|--------------------------------------------------------|
A#|--------------------------------------------------------|
F#|9--7--9--7--9/11--9--7--9--7--9/11--9--7--9--7--9/11--9-|
C#|--------------------------------------------------------|
G#|7--5--7--5--7/9---7--5--7--5--7/9---7--5--7--5--7/9---7-|
D#|--------------------------------------------------------|

 [Chorus]
 [RHYTHM] x 4 (1:05) 
D#|--------------|
A#|--------------|
F#|--------7-----|
C#|9---5---7---7-|
G#|9---5---5---7-|
D#|7---3-------5-|

 [POST-CHORUS] (1:29) "Where have they gone"
D#|------|
A#|------|
F#|------|
C#|9-7-5-|
G#|9-7-5-|
D#|7-5-3-|

 [VERSE 2] (1:34)
 [LEAD]
D#|12-10--15-14--7-10---|--------------------------------------------------|
A#|---------------------|5-7-5-7--5-7-5-7--5-7-5-7--3h5-3h5-3h5-3h5-3h5-3h5|
F#|---------------------|--------------------------------------------------|
C#|---------------------|--------------------------------------------------|
G#|---------------------|--------------------------------------------------|
D#|---------------------|--------------------------------------------------|

 [BRIDGE PART 1] (2:36)
D#|---------------------------------------------|
A#|10--10--10--10--10-10-10--10--10--10--10--10-|
F#|--77--77--77--77--7-----77--77--77--77--7----|
C#|---------------------------------------------|
G#|---------------------------------------------|
D#|---------------------------------------------|

 [BRIDGE PART 2] x4 (2:52)
D#|----------------------|
A#|----------------------|
F#|------7--7------------|
C#|9--5--7--7--9--5--7--7|
G#|9--5--5--5--9--5--7--7|
D#|7--3--------7--3--5--5|

 [POST-BRIDGE] (3:16)
 [LEAD]
D#|-------------------------|
A#|-------------------------|
F#|-7--9--11-9--12--11-7/14-|
C#|-------------------------|
G#|-5--7--9--7--10--9--5/12-|
D#|-------------------------|

 [POST-BRIDGE] (3:16)
 [RHYTHM]
D#|--------|
A#|--------|
F#|--------|
C#|5--5--5-|
G#|5--5--5-|
D#|3--3--3-|

 [OUTRO] - SEE INTRO
D#|---------------------------------------------|
A#|10--10--10--10--10-10-10--10--10--10--10--10-|
F#|--77--77--77--77--7-----77--77--77--77--7----|
C#|---------------------------------------------|
G#|---------------------------------------------|
D#|---------------------------------------------|
Suggest correction
comments
print report bad tab
8 comments total. Showing first comments.
+1 reply
stockylachy 10 Oct 29, 2008 12:53 PM

The lead for the second part of the intro and the chorus are played as octaves.

So chorus lead

e|---------------------
B|---------------------
G|9--7--9--7--9/11--9--
D|--------------------
A|7--5--7--5--7/9---7-
E|-------------------- etc.

0 reply
MetaShedda23 76 Oct 29, 2008 02:01 PM

pretty good tab

4

0 reply
Till From Kenig [m] 86 Oct 30, 2008 08:47 AM

test!

guest
You may want to rate the tab now too:
select rating
Wanna post a correction for this tab? Suggest correction