Oops, an error
Loading. Please wait.

Audience Of One Tab

version 2
version 2

Whole song

Interactive

39,950 views 1 this week
3 commentsread comments
1 2 3 4 5
x 5
add to favorites
launch autoscroll
font size
0
reset
how to read this tab
guitar tuner
Autoscroll
slow
fast
+/-
esc
set tempo
stop
Help us to improve Ultimate-Guitar.com Take our survey!
×
Author
Tuning
D# G# C# F# A# D#
Artist: Rise Against
Song: Audience Of One
Album: Appeal To Reason
Tuning: Half A Step Down (Eb Ab Db Gb Bb Eb)
Tabbed By: guitartiger


Intro:

eb|--5---5---5-5---5---5------|
Bb|---3-3-3-3-3-3-3-3-3-3-----|
Gb|---------------------------|
Db|---------------------------|
Ab|---------------------------|
Eb|---------------------------|X2 ( Semi-Palm Muted)

eb|---------------------------|---------------------------|
Bb|---------------------------|---------------------------|
Gb|--9-11-9-11-9-14-11-9-11-7-|-6-7-6-7-6-4-2-4-----------|
Db|---------------------------|-----------------5-5-5-5-5-|
Ab|--7-9--7-9--7-12-9--7-9--5-|-4-5-4-5-4-2-0-2-----------|
Eb|---------------------------|-----------------3-3-3-3-3-|

eb|---------------------------|
Bb|---------------------------|
Gb|---------------------------|
Db|--5-5-5--------------------|
Ab|---------------------------|
Eb|--3-3-3--------------------|

eb|---------------------------|---------------------------|
Bb|---------------------------|---------------------------|
Gb|--9-11-9-11-9-14-11-9-7-7--|-6-7-6-7-9-7-6-7-----------|
Db|---------------------------|-----------------5-5-5-5-5-|
Ab|--7-9--7-9--7-12-9--7-5-5--|-4-5-4-5-7-5-4-5-----------|
Eb|---------------------------|-----------------3-3-3-3-3-|

eb|---------------------------|
Bb|---------------------------|
Gb|---------7-----------------|
Db|--5-5-5--------------------|
Ab|---------5-----------------|
Eb|--3-3-3--------------------|

Fill
eb|--12-----------------------|
Bb|----15--14-15--------------|
Gb|------12-------------------|
Db|---------------------------|
Ab|---------------------------|
Eb|---------------------------|

Verse 1

(Guitar 1)
eb|---------------------------|
Bb|---------------------------|
Gb|---------------------------|
Db|-7----2----4---------------|
Ab|-5----0----2----5----------|
Eb|--X16--X16--X16-3-X16------| (Palm Muted)

(Guitar 2)
eb|---------------------------|
Bb|---------------------------|
Gb|---------------------------|
Db|--9---11-------------------|
Ab|--7---9--------------------|
Eb|---X4---X4-----------------|X7 (Palm Muted)

eb|---------------------------|
Bb|---------------------------|
Gb|---------------------------|
Db|--9---11---12---11-------7-|
Ab|--7---9----10---9----7---5-|
Eb|---X4---X4---X4---X2-5-X3--|

(Both Guitars)

eb|---------------------------|
Bb|---------------------------|
Gb|---------------------------|
Db|-7----2----4---------------|
Ab|-5----0----2----5----------|
Eb|--X16--X16--X16-3-X16------| (Palm Muted)

Fill

eb|---------------------------|
Bb|---------------------------|
Gb|--4---6---7---9------------|
Db|---------------------------|
Ab|--2---4---5---7------------|
Eb|---X4--X4--X4--X4----------|

Bridge

eb|---------------------------|
Bb|---------------------------|
Gb|-------7-------7-----------|
Db|--9----7--5----7---2-------|
Ab|--9----5--5----5---2-------|
Eb|--7-X5----3-X6--X6-0-X6----|

eb|---------------------------|
Bb|---------------------------|
Gb|-------7-------2-----------|
Db|--9----7--5----2-----------|
Ab|--9----5--5----0-----------|
Eb|--7-X5----3-X6--X10--------|

Chorus

(Guitar 1)

eb|---------------------------|
Bb|---------------------------|
Gb|------------7--------------|
Db|--9----5----7----7---------|
Ab|--9----5----5----7---------|
Eb|--7-X8-3-X8---X8-5-X8------|X4

(Guitar 2)

eb|---------------------------|   |---------------------------|
Bb|---------------------------|   |---------------------------|
Gb|--9-7-9-7-9-11-------------|   |--9------------------------|
Db|---------------------------|   |---------------------------|
Ab|--7-5-7-5-7-9--------------|   |--7------------------------|
Eb|---------------------------|X3 |----X8---------------------|Whole Thing X4


eb|---------------------------|
Bb|---------------------------|
Gb|-------------------7-7-----|
Db|--9---7---5--7-7-7-7-7-----|
Ab|--9-0-7-0-5--7-7-7-5-5-----|
Eb|--7-0-5-0-3--5-5-5---------|

Verse 2

(Guitar 1)

eb|---------------------------|
Bb|---------------------------|
Gb|---------------------------|
Db|-7----2----4---------------|
Ab|-5----0----2----5----------|
Eb|--X16--X16--X16-3-X16------| (Palm Muted)


(Guitar 2)

eb|--12----15-14--------------|
Bb|-----15-------12-15--------|
Gb|---------------------------|
Db|---------------------------|
Ab|---------------------------|
Eb|---------------------------|


eb|---------------------------|
Bb|---------------------------|
Gb|--------7-7----------------|
Db|--7-7-7-7-7----------------|
Ab|--7-7-7-5-5----------------|
Eb|--5-5-5--------------------|


(Guitar 1)

eb|---------------------------|
Bb|---------------------------|
Gb|---------------------------|
Db|-7----2----4---------------|
Ab|-5----0----2----5----------|
Eb|--X16--X16--X16-3-X16------| (Palm Muted)


(Guitar 2)

eb|--0-0-2-2-0-0-2-2----------|
Bb|--3-3-3-3-3-3-3-3----------|
Gb|--2-2-2-2-2-2-2-2----------|
Db|--0-0-0-0-0-0-0-0----------|
Ab|---------------------------|
Eb|---------------------------|X3

eb|---------------------------|
Bb|--2h3----------------------|
Gb|---------------------------|
Db|---------------------------|
Ab|---------------------------|
Eb|---------------------------|X12


Bridge

eb|---------------------------|
Bb|---------------------------|
Gb|-------7-------7-----------|
Db|--9----7--5----7---2-------|
Ab|--9----5--5----5---2-------|
Eb|--7-X5----3-X6--X6-0-X6----|

eb|---------------------------|
Bb|---------------------------|
Gb|-------7-------2-----------|
Db|--9----7--5----2-----------|
Ab|--9----5--5----0-----------|
Eb|--7-X5----3-X6--X10--------|

Chorus

(Guitar 1)

eb|---------------------------|
Bb|---------------------------|
Gb|------------7--------------|
Db|--9----5----7----7---------|
Ab|--9----5----5----7---------|
Eb|--7-X8-3-X8---X8-5-X8------|X4

(Guitar 2)

eb|---------------------------|   |---------------------------|
Bb|---------------------------|   |---------------------------|
Gb|--9-7-9-7-9-11-------------|   |--9------------------------|
Db|---------------------------|   |---------------------------|
Ab|--7-5-7-5-7-9--------------|   |--7------------------------|
Eb|---------------------------|X3 |----X8---------------------|Whole Thing X4


eb|---------------------------|
Bb|---------------------------|
Gb|---------------------------|
Db|--9---7---5----------------|
Ab|--9-0-7-0-5----------------|
Eb|--7-0-5-0-3----------------|

Post Chorus

eb|--5---5---5-5---5---5------|
Bb|---3-3-3-3-3-3-3-3-3-3-----|
Gb|---------------------------|
Db|---------------------------|
Ab|---------------------------|
Eb|---------------------------|X8 ( Semi-Palm Muted)


Solo

(Guitar 1)

e|---------------------------|---------------------------|
B|---------------------------|---------------------------|
G|------7------------7-9-11--|12-9-----------------------|
D|--9-5-7-9-5-7--9-5-7-9-11--|12-9-----------------------|
A|--9-5-5-9-5-7--9-5-5-7-9---|10-7-----------------------|
E|--7-3---7-3-5--7-3---------|---------------------------|X2

(Guitar 2)

eb|--0-2-5-2-0-2-0-2-0-0------|
Bb|--3-3-3-------3-3-3-3-X8---|
Gb|--2-2---------2-2-2--------|
Db|--0-0---------0-0-0--------|
Ab|---------------------------|
Eb|---------------------------|X2

eb|--10--10---10-----12---10--|10---9---------------------|
Bb|----10--10---10-10--10---10|--10-10-X8-----------------|
Gb|---------------------------|---------------------------|
Db|---------------------------|---------------------------|
Ab|---------------------------|---------------------------|
Eb|---------------------------|---------------------------|

eb|-----------10--10----------|---------------------------|
Bb|-------------10---12-10-7--|-7h8-X8--------------------|
Gb|--11-12-14-----------------|---------------------------|
Db|---------------------------|---------------------------|
Ab|---------------------------|---------------------------|
Eb|---------------------------|---------------------------|

eb|---------------------------|
Bb|---------------------------|
Gb|--7-9-11-9-12-11-7-9-------|
Db|---------------------------|
Ab|--5-7-9--7-10-9--5-7-------|
Eb|---------------------------| STOP!


Chorus

(Guitar 1)

eb|---------------------------|
Bb|---------------------------|
Gb|------------7--------------|
Db|--9----5----7----7---------|
Ab|--9----5----5----7---------|
Eb|--7-X8-3-X8---X8-5-X8------|X4

(Guitar 2)

eb|---------------------------|   |---------------------------|
Bb|---------------------------|   |---------------------------|
Gb|--9-7-9-7-9-11-------------|   |--9------------------------|
Db|---------------------------|   |---------------------------|
Ab|--7-5-7-5-7-9--------------|   |--7------------------------|
Eb|---------------------------|X3 |----X8---------------------|Whole Thing X4


eb|---------------------------|
Bb|---------------------------|
Gb|---------------------------|
Db|--9---7---5----------------|
Ab|--9-0-7-0-5----------------|
Eb|--7-0-5-0-3----------------|

Outro


eb|--5---5---5-5---5---5------|
Bb|---3-3-3-3-3-3-3-3-3-3-----|
Gb|---------------------------|
Db|---------------------------|
Ab|---------------------------|
Eb|---------------------------|( Semi-Palm Muted)  Fade Out...

End

Rate, Comment, Enjoy!! =P
Suggest correction
comments
print report bad tab
3 comments total.
0 reply
rock.com 10 Jun 25, 2009 08:09 AM

Awesome tabs, they are really accurate, thnx ^_^

+1 reply
Hender3 10 Aug 21, 2009 09:02 PM

im pretty sure the fill should be harmonics

0 reply
Shwax 252 Oct 06, 2009 11:20 AM

great tab - 90% accurate but the fill is played with harmonics as Hender3 said.

guest
You may want to rate the tab now too:
select rating
Wanna post a correction for this tab? Suggest correction