Oops, an error
Loading. Please wait.

Audience Of One Bass Tab

version 3
version 3

Whole song

Interactive

3,687 views 1 this week
2 commentsread comments
1 2 3 4 5
accurate
x 3
add to favorites
launch autoscroll
font size
0
reset
guitar tuner
Autoscroll
slow
fast
+/-
esc
set tempo
stop
Help us to improve Ultimate-Guitar.com Take our survey!
×
Author
5 String
Drop D
I like to play this song low but you can just as easily play octaves to get the same 
as the song. also to make the song sound cool switch between the low octave and high octave

intro
G-------------------------------------| x2 this part is eighth notes
D-------------------------------------|
A----------00000000-22222222----------|
D----------------------------55555555-|
B-33333333----------------------------|

verse
G---------------------------------------------------------------------| x2
D---------------------------------------------------------------------|
A------------------0-000-000-000-00-2-222-222-222-22------------------|
D----------------------------------------------------5-555-555-555-55-|
B-3-333-333-333-33----------------------------------------------------|

last note ofter the second time around is `

chorus
G--------------------------------------------|
D--------------------------------------------|
A----------------------------2222-0-5------0-|
D-00000000-55555555-22222222----------5555---|
B--------------------------------------------|

G--------------------------------------| x2
D--------------------------------------|
A-22222222--------------------00000000-|
D----------555555555-------------------|
B--------------------33333333----------|

after the second time the outro of the chorus is A-222-000---|
                                                 D---------5-|
this goes write into slapping(if you cant slap then you can use a pick to get a similar affect)

verse
G-------------------------------------| x2
D-------------------------------------|
A----------00000000-22222222----------|
D----------------------------55555555-|
B-33333333----------------------------|

after second time B-3-

chorus
G--------------------------------------------|
D--------------------------------------------|
A----------------------------2222-0-5------0-|
D-00000000-55555555-22222222----------5555---|
B--------------------------------------------|

G--------------------------------------| x2
D--------------------------------------|
A-22222222--------------------00000000-|
D----------555555555-------------------|
B--------------------33333333----------|

after the second time the outro of the chorus is A-222-000---|
                                                 D---------5-|
Bridge
G--------|
D--------|
A-2------|
D---5----|
B-----3--|

G-------|
D-------|
A-2---0-|
D---5---|
B-------|

G----------------|
D----------------|
A-2---5-7-9-10-7-|
D---5------------|
B----------------|
^^^^^^^^^^^^^^^^^
this is played twice

this is the outro of the bridge
vvvvvvvvv
G--------|
D--------|
A-2------|
D---5----|
B-----3--|

G-------|
D-------|
A-2---0-|
D---5---|
B-------|

G----------------|
D----------------|
A-2---5-7-9-10-7-|
D---5------------|
B----------------|

G--------------------|
D--------------------|
A-5-7-9-7-10-9----12-|
D--------------12----|
B--------------------|

chorus
G--------------------------------------------|
D--------------------------------------------|
A----------------------------2222-0-5------0-|
D-00000000-55555555-22222222----------5555---|
B--------------------------------------------|

G-------------------------------------------|
D-------------------------------------------|
A-22222222--------------------00000000------|
D----------555555555------------------------|
B--------------------33333333---------------|

G--------------------------------------------------|
D--------------------------------------------------|
A-22222222--------------------000000/12-11-9-------|
D----------555555555-------------------------------|
B--------------------33333333----------------14-12-|

outro/chorus
G--------------------------------------------|
D--------------------------------------------|
A----------------------------2222-0-5------0-|
D-00000000-55555555-22222222----------5555---|
B--------------------------------------------|

G--------------------------------------| x2
D--------------------------------------|
A-22222222--------------------00000000-|
D----------555555555-------------------|
B--------------------33333333----------|

 A-222-000---|
 D---------5-|


G-------|
D-------|
A-2---5-|
D---5---|
B-------|
Suggest correction
Give kudos to tab author, rate the tab!
1 2 3 4 5
comments
print report bad tab
2 comments total.
0 reply
sr305dx 10 wrote on May 30 2009, 10:46 pm

i like the low too sounds good

0 reply
cooper665 40 wrote on November 11 2009, 04:40 pm

meh this sucks cuz its nt the way its actually played

guest
You may want to rate the tab now too:
select rating
Wanna post a correction for this tab? Suggest correction