Oops, an error
Loading. Please wait.

Audience Of One Bass Tab

version 4
version 4

Whole song

Interactive

407 views 1 this week
no commentswrite comment
1 2 3 4 5
3 more votes to show rating
add to favorites
launch autoscroll
font size
0
reset
guitar tuner
Autoscroll
slow
fast
+/-
esc
set tempo
stop
Help us to improve Ultimate-Guitar.com Take our survey!
×
Author
Difficulty
novice
This is all played pretty slowly


Intro 

Verse
G|-------------------------------|
D|-------------------------------|
A|44444444-----------------------|
E|--------44444444666666662222222| x8

Pre-chorus
G|-------------------------|
D|-------------------------|
A|----44446666----4--------|
E|2222----------66-22224444|

Chorus
G|----------------|          |-----|
D|----------------|          |-----|
A|--------4444----|          |-----|
E|66662222----4444| x4 then  |66442|

Verse
This is played a bit faster
G|---------------------------------------------------------------|
D|---------------------------------------------------------------|
A|4444444444444444-----------------------------------------------|
E|----------------44444444444444446666666666666666222222222222222| 

Pre-chorus
G|-------------------------|
D|-------------------------|
A|----44446666----4--------|
E|2222----------66-22224444|

Chorus
G|----------------|          |-----|
D|----------------|          |-----|
A|--------4444----|          |-----|
E|66662222----4444| x4 then  |66442|

Play this in time with the drums
G|----------------------------------------|          |-----------------|
D|----------------------------------------|          |-----------------|
A|------4-------------------4-------------|          |-----------------|
E|6--2------6--2--4---6--2-------4-6-8-9-6| x3 then  |4-6-8-6-6-9-8-6-4|

Chorus
G|----------------|          |-----|
D|----------------|          |-----|
A|--------4444----|          |-----|
E|66662222----4444| x4 then  |66442|
Suggest correction
Give kudos to tab author, rate the tab!
1 2 3 4 5
comments
print report bad tab
guest
You may want to rate the tab now too:
select rating
Wanna post a correction for this tab? Suggest correction