Oops, an error
Loading. Please wait.

Behind Closed Doors Tab

version 1
version 1

Whole song

Interactive

74,427 views 6 this week
21 commentsread comments
1 2 3 4 5
x 16
add to favorites
launch autoscroll
font size
0
reset
how to read this tab
guitar tuner
Autoscroll
slow
fast
+/-
esc
set tempo
stop
Help us to improve Ultimate-Guitar.com Take our survey!
×
Author
Difficulty
intermediate
Behind Closed Doors
Rise Against
The Sufferer & The Witness

*updated (i fixed the mixed chord, it's an F5)

..=palm mute
/=slide
~=let ring
p=pull off

intro
   (chairs thrown...)
--------------------------------------------------------|
--------------------------------------------------------|
--------------------------------------------------------|
-8-888888888886-4-444444444448-3-333333333336-4-4444446-|
-8-888888888886-4-444444444446-3-333333333336-4-4444446-|
-6-666666666664-2-222222222226-1-111111111114-2-2222224-|
   ...........    ...........    ...........    ......

main riff guitar 1            x3
|----------------------------|-----------------------------------|
|----6-----6-----8/9-6-----6-|----6-----6-----6---6-----6--------|
|--8---8-6---6-8-------6-8---|--8---8-6---6-8---8---8-6---6-8-8--|
|----------------------------|-----------------------------------|
|----------------------------|-----------------------------------|
|----------------------------|-----------------------------------|

fill guitar 2 (under riff)
---------------------------------------------------------------|
---------------------------------------------------------------|
---------------------------------------------------------------|
-8-888888888886-4-444444444448-3-333333333336-4-4444446-666666-|
-8-888888888886-4-444444444446-3-333333333336-4-4444446-666666-|
-6-666666666664-2-222222222226-1-111111111114-2-2222224-444444-|


verse 1 guitar 1
(there's a point)      (how about the time)
---------------------|---------------------------------------|
-------------------------------------------------------------|
-10~~~~~~~~------------810~--86~--810~--8-68--10-------------|
-x---------------------xx----xx---xx----x-xx--x--------------|
-8~~~~~~~~~------------68~---64~--68~---6-46--8--------------|
---------------------|---------------------------------------|


verse 1 guitar 2  (same as intro)                              x2 
---------------------------------------------------------------|
---------------------------------------------------------------|
---------------------------------------------------------------|
-8-888888888886-4-444444444448-3-333333333336-4-4444446-666666-|
-8-888888888886-4-444444444446-3-333333333336-4-4444446-666666-|
-6-666666666664-2-222222222226-1-111111111114-2-2222224-444444-|
   ...........    ...........    ...........    ......  ......


prechorus guitar 1            x3    (main riff) 
|----------------------------|-----------------------------------|
|----6-----6-----8/9-6-----6-|----6-----6-----6---6-----6--------|
|--8---8-6---6-8-------6-8---|--8---8-6---6-8---8---8-6---6-8-8--|
|----------------------------|-----------------------------------|
|----------------------------|-----------------------------------|
|----------------------------|-----------------------------------|

prechorus guitar 2 (same as fill)
---------------------------------------------------------------|
---------------------------------------------------------------|
---------------------------------------------------------------|
-8-888888888886-4-444444444448-3-333333333336-4-4444446-666666-|
-8-888888888886-4-444444444446-3-333333333336-4-4444446-666666-|
-6-666666666664-2-222222222226-1-111111111114-2-2222224-444444-|


chorus guitar 1               x3 (main riff) start after pickslide
|----------------------------|-----------------------------------|
|----6-----6-----8/9-6-----6-|----6-----6-----6---6-----6--------|
|--8---8-6---6-8-------6-8---|--8---8-6---6-8---8---8-6---6-8-8--|
|----------------------------|-----------------------------------|
|----------------------------|-----------------------------------|
|----------------------------|-----------------------------------|

------------------------------------------------------|
---------------------9p7-9p7-9p7-6-8/10-8-6-8-8/11~---|
-6666-8888-10101010-----------------------------------|
-xxxx-xxxx-x-x-x-x------------------------------------|
-4444-6666-8-8-8-8------------------------------------|
------------------------------------------------------|

you don't really need the guitar 1 in the chorus
except in the final chorus.  its very faint, you 
can barely hear it, and noone will really notice.
and the second part starting with the C# octave
has been driving me crazy for the last week
so i'm not 100% sure if its correct, but its close

chorus guitar 2                                 x3
-----------|------------------------------------|--------------------|
-----------|------------------------------------|--------------------|
-----------|------------------------------------|--------------------|
-pickslide-|-4444444466666666888888888888101010-|-44444444666666668~-|
-----------|-4444444466666666888888888888101010-|-44444444666666668~-|
-----------|-22222222444444446666666666668-8-8--|-22222222444444446~-|


verse 2 guitar 1     2nd time through                        x2
--------------------|-------------------------------------------|
--------------------|-9p8-9p8-6-9p8-9p8-6-9p8-9p8-6-10p9-10p9-6-|
--------------------|-------------------------------------------|
-8~~-10/11-10/11-13-|-------------------------------------------|
-8~~-10/11-10/11-13-|-------------------------------------------|
-6~~--8/9---8/9--11-|-------------------------------------------|

verse 2 guitar 2         
-first-time-through------|
-slowly-turn-gain/-------|
-distortion-level--------|
-way-up.-listen,---------|
-you'll-hear-it----------|
-------------------------|
2nd time through its:  (same as intro/verse 1)
---------------------------------------------------------------|
---------------------------------------------------------------|
---------------------------------------------------------------|
-8-888888888886-4-444444444448-3-333333333336-4-4444446-666666-|
-8-888888888886-4-444444444446-3-333333333336-4-4444446-666666-|
-6-666666666664-2-222222222226-1-111111111114-2-2222224-444444-|
   ...........    ...........    ...........    ......  ......


chorus guitar 1               x3 (main riff) start after pickslide
|----------------------------|-----------------------------------|
|----6-----6-----8/9-6-----6-|----6-----6-----6---6-----6--------|
|--8---8-6---6-8-------6-8---|--8---8-6---6-8---8---8-6---6-8-8--|
|----------------------------|-----------------------------------|
|----------------------------|-----------------------------------|
|----------------------------|-----------------------------------|

------------------------------------------------------|
---------------------9p7-9p7-9p7-6-8/10-8-6-8-8/11~---|
-6666-8888-10101010-----------------------------------|
-xxxx-xxxx-x-x-x-x------------------------------------|
-4444-6666-8-8-8-8------------------------------------|
------------------------------------------------------|

chorus guitar 2                                 x3
-----------|------------------------------------|-------------------|
-----------|------------------------------------|-------------------|
-----------|------------------------------------|-------------------|
-pickslide-|-4444444466666666888888888888101010-|-444444446666666-6-|
-----------|-4444444466666666888888888888101010-|-444444446666666-6-|
-----------|-22222222444444446666666666668-8-8--|-222222224444444-4-|


solo guitar 1
-----------------------------------88889999888899998888999988889999-|
-/96969696969696969696969696969696----------------------------------|
--------------------------------------------------------------------|
--------------------------------------------------------------------|
--------------------------------------------------------------------|
--------------------------------------------------------------------|
for the G# to F use pull offs if you want


solo guitar 2                                         
-----------------------------------------------------|
-----------------------------------------------------|
-----------------------------------------------------|
-44444--6666-44444--666688888888888866-88888888888866|
-44444--6666-44444--666688888888888866-88888888888866|
-22222--4444-22222--444466666666666644-66666666666644|

bridge guitar 1 out

bridge guitar 2 (same as solo)                       x2
-----------------------------------------------------|
-----------------------------------------------------|
-----------------------------------------------------|
-44444--6666-44444--666688888888888866-88888888888866|
-44444--6666-44444--666688888888888866-88888888888866|
-22222--4444-22222--444466666666666644-66666666666644|

1/2 chorus w/ only guitar            x2
(2 measures)                  2nd time end here
|-----------------------------|-------|
|-----------------------------|-------|
|-------------------------------------|
|-4444444466666666888888888888101010--|
|-4444444466666666888888888888101010--|
|-22222222444444446666666666668-8-8---|

2/2 chorus w/everything(inc. guitar 1) x2
|-------------------------------------|
|-------------------------------------|
|-------------------------------------|
|-4444444466666666888888888888101010--|
|-4444444466666666888888888888101010--|
|-22222222444444446666666666668-8-8---|


chorus (guitar 1 is turned up significantly at this point)
guitar 1                     x3 (main riff) start after pickslide
|----------------------------|-----------------------------------|
|----6-----6-----8/9-6-----6-|----6-----6-----6---6-----6--------|
|--8---8-6---6-8-------6-8---|--8---8-6---6-8---8---8-6---6-8-8--|
|----------------------------|-----------------------------------|
|----------------------------|-----------------------------------|
|----------------------------|-----------------------------------|

-------------------------------------------------------|
---------------------9p7-9p7-9p7-6-8/10-8-6-8-8/11~~~~-|
-6666-8888-10101010------------------------------------|
-xxxx-xxxx-x-x-x-x-------------------------------------|
-4444-6666-8-8-8-8-------------------------------------|
-------------------------------------------------------|

chorus guitar 2                      x3
|------------------------------------|-----------------------|
|------------------------------------|-----------------------|
|------------------------------------|-----------------------|
|-4444444466666666888888888888101010-|-44444444666666668~~~~-|
|-4444444466666666888888888888101010-|-44444444666666668~~~~-|
|-22222222444444446666666666668-8-8--|-22222222444444446~~~~-|


enjoi
Suggest correction
comments
print report bad tab
21 comments total. Showing first comments.
0 reply
skwank 10 Jul 14, 2006 02:16 AM

its "chairs thrown" haha

-2 reply
shugo449 530 Aug 10, 2006 01:06 PM

godd tab i dont know why people gave it 3* i gave it 5* rock on check out my tab Ready To Fall ver 2 it got 5* from five people

0 reply
solitarycheese 10 Sep 18, 2006 08:01 PM

Is the song in drop d or standard tuning? Because you have drop d power chords mixed in with standard power chords on the top string (like the

e
b
g
d 1
a 1
e 1

chord in the intro.

guest
You may want to rate the tab now too:
select rating
Wanna post a correction for this tab? Suggest correction