Oops, an error
Loading. Please wait.

Behind Closed Doors Tab

version 2
version 2

Whole song

Interactive

113,027 views 48 this week
17 commentsread comments
1 2 3 4 5
excellent!
x 33
add to favorites
launch autoscroll
font size
0
reset
how to read this tab
guitar tuner
Autoscroll
slow
fast
+/-
esc
set tempo
stop
Help us to improve Ultimate-Guitar.com Take our survey!
×
Author
Tuning
D# G# C# F# A# D#
[Intro]

Guitar I

D#|-----------------------------------------------------------------|
A#|-----------------------------------------------------------------|
F#|------------------------------33---------------------------------|
C#|9-9999999999977-55-5555555555533-22-22222222222-77-55-55555555-7-|
G#|9-9999999999977-55-5555555555555-22-22222222222-77-55-55555555-7-|
D#|7-7777777777755-33-33333333333---00-00000000000-55-33-33333333-5-|
   ...........      ...........      ...........       ........


[Intro Part 2]

Guitar I

D#|-----------------------------------------------------------------------|
A#|-----------------------------------------------------------------------|
F#|------------------------------33---------------------------------------|
C#|999999999999977-5555555555555533-2222222222222277-55555555557777777777-|
G#|999999999999977-5555555555555555-2222222222222277-55555555557777777777-|
D#|777777777777755-33333333333333---0000000000000055-33333333335555555555-|


[Intro Part 2]

Guitar II

D#|--------------------------------------------------------------------------|
A#|----------------10------------------------------------10------------------|
F#|---7-9-11-9-7-------11-9-7-9/11--11------7-9-11-9-7-------11-9-7-9/11--11-|
C#|-9------------9------------------------9------------9---------------------|
G#|--------------------------------------------------------------------------|
D#|--------------------------------------------------------------------------|

D#|--------------------------------------------------------------------------|
A#|----------------10--------------------------------------------------------|
F#|---7-9-11-9-7-------11-9-7-9/11-----4/6-6-6--6\4-4-4--4/6-6-6--6\4-4-4-4~-|
C#|-9------------9-----------------------------------------------------------|
G#|------------------------------------2/4-4-4--4\2-2-2--2/4-4-4--4\2-2-2-2~-|
D#|--------------------------------------------------------------------------|


[Verse]

Guitar I x2

D#|--------------------------------------------------------------------------|
A#|--------------------------------------------------------------------------|
F#|------------------------------33------------------------------------------|
C#|9-9999999999977-55-5555555555533-22-22222222222-77-55-55555555-7-77777777-|
G#|9-9999999999977-55-5555555555555-22-22222222222-77-55-55555555-7-77777777-|
D#|7-7777777777755-33-33333333333---00-00000000000-55-33-33333333-5-55555555-|
   ...........      ...........      ...........       ........   ........

Guitar II (come in on second round of riff)

D#|------------------------------------------------|
A#|------------------------------------------------|
F#|7--7/8-----7/8\7--2-----7-7/8-----7/8\7--2---4~-|
C#|------------------------------------------------|
G#|5--5/6-----5/6\5--0-----5-5/6-----5/6\5--0---2~-|
D#|------------------------------------------------|


[Intro Part 2]

Guitar I

D#|-----------------------------------------------------------------------|
A#|-----------------------------------------------------------------------|
F#|------------------------------33---------------------------------------|
C#|999999999999977-5555555555555533-2222222222222277-55555555557777777777-|
G#|999999999999977-5555555555555555-2222222222222277-55555555557777777777-|
D#|777777777777755-33333333333333---0000000000000055-33333333335555555555-|


Guitar II

D#|--------------------------------------------------------------------------|
A#|----------------10------------------------------------10------------------|
F#|---7-9-11-9-7-------11-9-7-9/11--11------7-9-11-9-7-------11-9-7-9/11--11-|
C#|-9------------9------------------------9------------9---------------------|
G#|--------------------------------------------------------------------------|
D#|--------------------------------------------------------------------------|

D#|--------------------------------------------------------------------------|
A#|----------------10--------------------------------------------------------|
F#|---7-9-11-9-7-------11-9-7-9/11-----4/6-6-6--6\4-4-4--4/6-6-6--6\4-4-4-4~-|
C#|-9------------9-----------------------------------------------------------|
G#|------------------------------------2/4-4-4--4\2-2-2--2/4-4-4--4\2-2-2-2~-|
D#|--------------------------------------------------------------------------|


[Pre-Chorus]

D#|------------------|
A#|------------------|
F#|------------------|
C#|p-i-c-k-s-l-i-d-e-|
G#|p-i-c-k-s-l-i-d-e-|
D#|p-i-c-k-s-l-i-d-e-|


[Chorus]

Guitar I x4

D#|-----------------------------------|
A#|-----------------------------------|
F#|------------------------------7777-|on the last time through the riff,
C#|5-5-55557-7-77779-9-99999999997777-|do not plat the D5, let the B5 ring
G#|5-5-55557-7-77779-9-99999999995555-|
D#|3-3-33335-5-55557-7-7777777777-----|


Guitar II (comes in on second time through chorus riff)

D#|------------------------------------------------------|
A#|------------------------------------------------------|
F#|7--6-6--4-4---7--6-6--4-4---7--6-6-4-4----7--4-4--6-6-|
C#|------------------------------------------------------|
G#|5--4-4--2-2---5--4-4--2-2---5--4-4--2-2---5--2-2--4-4-|
D#|------------------------------------------------------|

D#|------------------------------|
A#|------------------------------|
F#|7--6-6--4-4---7--6-6--4-4--4~-|
C#|------------------------------|
G#|5--4-4--2-2---5--4-4--2-2--2~-|
D#|------------------------------|


[Verse]

Guitar I

D#|Bass-Plays-Here---Slowy-Aquire-Feedback-Here|
A#|Bass-Plays-Here---Slowy-Aquire-Feedback-Here|
F#|Bass-Plays-Here---Slowy-Aquire-Feedback-Here|
C#|Bass-Plays-Here---Slowy-Aquire-Feedback-Here|
G#|Bass-Plays-Here---Slowy-Aquire-Feedback-Here|
D#|Bass-Plays-Here---Slowy-Aquire-Feedback-Here|

Guitar II

D#|--------------------------------------------------------------------|
A#|--------------------------------------------------------------------|
F#|6--7-----------------6--------7------9------------------------------|
C#|--------------------------------------------------------------------|
G#|4--5-----------------4--------5------7------------------------------|
D#|--------------------------------------------------------------------|

[.....flames dance on crashing waves, guiding ships who've gone astray]


[Verse]

 Guitar I

D#|----------------------------------------------------------------------|
A#|----------------------------------------------------------------------|
F#|------------------------------33--------------------------------------|
C#|9-9999999999977-55-5555555555533-22-22222222222-77-55-555555-7-777777-|
G#|9-9999999999977-55-5555555555555-22-22222222222-77-55-555555-7-777777-|
D#|7-7777777777755-33-33333333333---00-00000000000-55-33-333333-5-555555-|
   ...........      ...........      ...........       ......   ......

D#|-----------------------------|
A#|-----------------------------|
F#|-----------------------------|
C#|999999999---p-i-c-k-s-l-i-d-e|
G#|999999999---p-i-c-k-s-l-i-d-e|
D#|777777777---p-i-c-k-s-l-i-d-e|


Guitar II

D#|-------------------------------------------------------|
A#|11p8p7-11--777--11p8p7-11--777--11p8p7-11--777--12--12-|
F#|-------------------------------------------------------|
C#|-------------------------------------------------------|
G#|-------------------------------------------------------|
D#|-------------------------------------------------------|

D#|-----------------------------------------------------------------|
A#|11p8p7-11--777--11p8p7-11--777--11p8p7-11--777--12--12-----------|
F#|-----------------------------------------------------------------|
C#|-------------------------------------------------------999999999-|
G#|-------------------------------------------------------999999999-|
D#|-------------------------------------------------------777777777-|

D#|------------------|
A#|------------------|
F#|------------------|
C#|p-i-c-k-s-l-i-d-e-|
G#|p-i-c-k-s-l-i-d-e-|
D#|p-i-c-k-s-l-i-d-e-|


[Chorus]

D#|-----------------------------------|
A#|-----------------------------------|
F#|------------------------------7777-|on the last time through the riff,
C#|5-5-55557-7-77779-9-99999999997777-|do not plat the D5, let the B5 ring
G#|5-5-55557-7-77779-9-99999999995555-|
D#|3-3-33335-5-55557-7-7777777777-----|

Guitar II (comes in on second time through chorus riff)

D#|------------------------------------------------------|
A#|------------------------------------------------------|
F#|7--6-6--4-4---7--6-6--4-4---7--6-6-4-4----7--4-4--6-6-|
C#|------------------------------------------------------|
G#|5--4-4--2-2---5--4-4--2-2---5--4-4--2-2---5--2-2--4-4-|
D#|------------------------------------------------------|

D#|--------------------------------------|
A#|--------------------------------------|
F#|7--6-6--4-4---7--6-6--4-4--4-444444444|
C#|--------------------------------------|
G#|5--4-4--2-2---5--4-4--2-2--2-222222222|
D#|--------------------------------------|


[Bridge]

Guitar I

D#|-----------------------------------------------------------|
A#|-----------------------------------------------------------|
F#|-----------------------------------------------------------|
C#|55555---7-77-55555---7-77-99999999999997779999999999999777-|
G#|55555---7-77-55555---7-77-99999999999997779999999999999777-|
D#|33333---5-55-33333---5-55-77777777777775557777777777777555-|

Guitar II

D#|------------------------------------------------------------------|
A#|-10--10--10--10--10--10--10--10--10--10--10--10--10--10--10--10---|
F#|---11--11--11--11--11--11--11--11--11--11--11--11--11--11--11--11-|
C#|------------------------------------------------------------------|
G#|------------------------------------------------------------------|
D#|------------------------------------------------------------------|

D#|999910101010999910101010999910101010999910101010-|
A#|-------------------------------------------------|
F#|-------------------------------------------------|
C#|-------------------------------------------------|
G#|-------------------------------------------------|
D#|-------------------------------------------------|

Guitar I & II x2

D#|-----------------------------------------------------------|
A#|-----------------------------------------------------------|
F#|-----------------------------------------------------------|
C#|55555---7-77-55555---7777-99999999999997779999999999999777-|
G#|55555---7-77-55555---7777-99999999999997779999999999999777-|
D#|33333---5-55-33333---5555-77777777777775557777777777777555-|


Breakdown 

Guitar I

D#|---------------------------------------------------------------|
A#|---------------------------------------------------------------|
F#|------------------------------7777-----------------------------|
C#|5-5-55557-7-77779-9-999999999977775-5-55557-7-7777-9-9-9999999-|
G#|5-5-55557-7-77779-9-999999999955555-5-55557-7-7777-9-9-9999999-|
D#|3-3-33335-5-55557-7-7777777777----3-3-33335-5-5555-7-7-7777777-|


[Chorus]

  Guitar I x2
D#|-----------------------------------|
A#|-----------------------------------|
F#|------------------------------7777-|
C#|5-5-55557-7-77779-9-99999999997777-|
G#|5-5-55557-7-77779-9-99999999995555-|
D#|3-3-33335-5-55557-7-7777777777-----|


Guitar II

D#|------------------------------------------------------|
A#|------------------------------------------------------|
F#|7--6-6--4-4---7--6-6--4-4---7--6-6-4-4----7--4-4--6-6-|
C#|------------------------------------------------------|
G#|5--4-4--2-2---5--4-4--2-2---5--4-4-2-2----5--2-2--4-4-|
D#|------------------------------------------------------|

D#|-----------------------------|
A#|-----------------------------|
F#|7--6-6--4-4---7--6-6--4-4--4-|
C#|-----------------------------|
G#|5--4-4--2-2---5--4-4--2-2--2-|
D#|-----------------------------|


Guitar I x5

D#|-----------------------------------|
A#|-----------------------------------|
F#|------------------------------7777-|
C#|5-5-55557-7-77779-9-99999999997777-|
G#|5-5-55557-7-77779-9-99999999995555-|
D#|3-3-33335-5-55557-7-7777777777-----|


Guitar II

D#|--------------------------------------------------------------------------|
A#|----------------10------------------------------------10------------------|
F#|---7-9-11-9-7-------11-9-7-9/11--11------7-9-11-9-7-------11-9-7-9/11--11-|
C#|-9------------9------------------------9------------9---------------------|
G#|--------------------------------------------------------------------------|
D#|--------------------------------------------------------------------------|

D#|-------------------------------------------------------------------------|
A#|----------------10-------------------------------------------------------|
F#|---7-9-11-9-7-------11-9-7-9/11-----4/6-6-6--6\4-4-4--4/6-6-6--6\4-4-4-4-|
C#|-9------------9----------------------------------------------------------|
G#|------------------------------------2/4-4-4--4\2-2-2--2/4-4-4--4\2-2-2-2-|
D#|-------------------------------------------------------------------------|


Guitar I

D#|-------------------|
A#|-------------------|
F#|-------------------|
C#|55555555777777779~-| (sync this with the pull offs, and hit the 799 while
G#|55555555777777779~-| guitar II hits 12b)
D#|33333333555555557~-|

D#|--------------------------------------------------------------------------|
A#|-------------------10p8p7-10p8p7-10p8p7-10p8p7--12--10--10p8p7-10p8p7-/12~|
F#|6-6/7--6--2/4--6-7--------------------------------------------------------|
C#|--------------------------------------------------------------------------|
G#|--------------------------------------------------------------------------|
D#|--------------------------------------------------------------------------|



************************************

| p  Pull-off
| /  Slide up
| \  Slide down
| ~  Vibrato
| s  Slap

************************************
Suggest correction
comments
print report bad tab
17 comments total. Showing first comments. show 1 bad comment
+2 reply
raysetsfire 682 wrote on November 12 2006, 08:08 am

hey this great just like the song. the other version isn't half as good as this. Good work!

+1 reply
shugo449 530 wrote on November 21 2006, 06:24 pm

nice man

guest
You may want to rate the tab now too:
select rating
Wanna post a correction for this tab? Suggest correction