Oops, an error
Loading. Please wait.

Behind Closed Doors Bass

version 4
version 4

Whole song

Interactive

2,463 views 3 this week
no commentswrite comment
1 2 3 4 5
1 last vote to show rating
add to favorites
launch autoscroll
font size
0
reset
guitar tuner
×
Best way to learn
"Behind Closed Doors"
Autoscroll
slow
fast
+/-
esc
set tempo
stop
Author
Song: Behind Closed Doors
Artist: Rise Against
Album: The Sufferer & The Witness

This is a really cool yet straightforward song. There is just one riff in the 
final chorus that I have trouble hearing, but other than that the song is easy. 
The notes are arranged according to the song’s timing. Use the font Courier New, 
size 9, to print this tab. Enjoy!


VERSE 1   (0:09)

Gb|----------------|----------------|----------------|----------------|
Db|----------------|----------------|----------------|----------------|
Ab|2-2-2-2-2-2-2-2-|2-2-2-2-2-------|----------------|----------5-5-5-|
Eb|----------------|----------5-5-5-|3-3-3-3-3-3-3-3-|3-3-3-3-3-------|  \
                                                                         |  x4
Gb|----------------|----------------|----------------|----------------|  /
Db|----------------|----------------|----------------|----------------|
Ab|----------------|----------------|----------------|----------------|
Eb|0-0-0-0-0-0-0-0-|0-0-0-0-0-5-5-5-|3-3-3-3-3-3-3-3-|5-5-5-5-5-5-5-5-|

Gb|----------------|----------------|
Db|----------------|----------------|
Ab|2-2-2-2-2-2-2-2-|2---------------|
Eb|----------------|----------------|


CHORUS 1   (0:51)

Gb|----------------|----------------|----------------|----------------|
Db|----------------|----------------|----------------|----------------|
Ab|----------------|----------------|2-2-2-2-2-2-2-2-|2-2-2-2-5-5-5-5-|
Eb|3---3-3-3-3-3-3-|5-5-5-5-5-5-5-5-|----------------|----------------|

Gb|----------------|----------------|----------------|----------------|
Db|5---5-5-4-------|------------4\--|----------------|----------------|
Ab|----------7-5---|7-7-7---5-7-----|2-2-2-2-2-2-2-2-|2-2-2-2-5-5-5-5-|
Eb|----------------|----------------|----------------|----------------|

Gb|----------------|----------------|----------------|----------------|
Db|----------------|----------------|----------------|----------------|
Ab|----------------|----------------|2-2-2-2-2-2-2-2-|2-2-2-2-5-5-5-5-|
Eb|3---3-3-3-3-3-3-|5-5-5-5-5-5-5-5-|----------------|----------------|

Gb|----------------|----------------|
Db|----------------|----------------|
Ab|----------------|----------------|
Eb|3-3-3-3-3-3-3-3-|5-5-5-5-5-5-5-5-|


VERSE 2   (1:08)  -> Play verse 1, but repeat the first eight bars only twice


CHORUS 2   (1:31)  -> Play chorus 1, then play this:

Gb|----------------|----------------|
Db|----------------|----------------|
Ab|2-2-2-2-2-2-2-2-|2---------------|
Eb|----------------|----------------|



INTERLUDE   (1:50)

Gb|----------------|----------------|----------------|----------------|
Db|----------------|----------------|----------------|----------------|
Ab|----------------|----------------|----------------|----------------|
Eb|3-3-3-3-3-------|--------5-5-5-5-|3-3-3-3-3-------|--------5-5-5-5-|  \
                                                                         |  x3
Gb|----------------|----------------|----------------|----------------|  /
Db|----------------|----------------|----------------|----------------|
Ab|2-2-2-2-2-2-2-2-|2-2-2-2-2-------|2-2-2-2-2-2-2-2-|2-2-2-2-2-------|
Eb|----------------|----------5-5-5-|----------------|----------5-5-5-|


CHORUS 3   (2:20)

Gb|----------------|
Db|----------------|
Ab|----------------|
Eb|3---------------|

Rest 7 bars


Gb|----------------|----------------|----------------|----------------|
Db|----------------|----------------|----------------|----------------|
Ab|----------------|----------------|2-2-2-2-2-2-2-2-|2-2-2-2-5-5-5-5-|
Eb|3---3-3-3-3-3-3-|5-5-5-5-5-5-5-5-|----------------|----------------|

Gb|----------------|----------------|----------------|----------------|
Db|----------------|----------------|------------4---|4-2---4/9\------|
Ab|----------------|----------------|2-2-2-2-2-2-----|----5-----------|
Eb|3---3-3-3-3-3-3-|5-5-5-5-5-5-5-5-|----------------|----------------|


Gb|----------------|----------------|----------------|----------------|
Db|----------------|----------------|----------------|----------------|
Ab|----------------|----------------|2-2-2-2-2-2-2-2-|2-2-2-2-5-5-5-5-|
Eb|3---3-3-3-3-3-3-|5-5-5-5-5-5-5-5-|----------------|----------------|  x3

Gb|----------------|----------------|----------------|
Db|5-5-5---4-------|------------4---|4---------------|
Ab|----------7-5---|7-7-7---5-7-----|----------------|
Eb|----------------|----------------|----------------|    -3:15


Symbol Legend:

x4   = Play this section four times
\    = Slide down
/    = Slide up

That’s it. Any questions, comments, suggestions or corrections would be appreciated.
Suggest correction
Give kudos to tab author, rate the tab!
1 2 3 4 5
comments
print report bad tab
guest
You may want to rate the tab now too:
select rating
Wanna post a correction for this tab? Suggest correction