Oops, an error
Loading. Please wait.

Black Masks And Gasoline tab

version 5
version 5

Whole song

Interactive

82 views 1 this week
no commentswrite comment
1 2 3 4 5
3 more votes to show rating
add to favorites
×
Save as Personal and add changes to this tab that will be seen only by you. Learn more ›
×
You can save this tab as Personal to edit and correct it or add notes. All changes will be seen only by you. Learn more »
launch autoscroll
font size
0
reset
how to read this tab
guitar tuner
edit
Autoscroll
slow
fast
+/-
esc
set tempo
stop
[Intro]

        Guitar 1 and 2
eb|-----------------------------------------------------------------|
Bb|-----------------------------------------------------------------|
Gb|-3----3--5---5----5--7-----------3----3--5---5----5--7-----------|
Db|-3-3--3--5---5-5--5--7---7~------3-3--3--5---5-5--5--7---7~------|
Ab|-1-3--1--3---3-5--3--5---7~------1-3--1--3---3-5--3--5---7~------|
Eb|---1-----------3---------5~--------1-----------3---------5~------|

        Guitar 2 let ring


[Verse 1]

        Guitar 1
eb|-----------------------------------------------------------------|
Bb|-----------------------------------------------------------------|
Gb|---------------------------------10--10--1010101010--10--10101010|
Db|-7---7---7-7-7-7-7---7---7-7-7-7-10--10--1010101010--10--10101010|
Ab|-7---7---7-7-7-7-7---7---7-7-7-7-8---8---8-8-8-8-8---8---8-8-8-8-|
Eb|-5---5---5-5-5-5-5---5---5-5-5-5---------------------------------|

eb|-----------------------------------------------------------------|
Bb|-----------------------------------------------------------------|
Gb|---------------------------------12--12--1212121212--12--12121212|x2
Db|-10--10--1010101010--10--1010101012--12--1212121212--12--12121212|
Ab|-10--10--1010101010--10--1010101010--10--1010101010--10--10101010|
Eb|-8---8---8-8-8-8-8---8---8-8-8-8---------------------------------|



        Guitar 1 and 2
eb|-----------------------------------------------------------------|
Bb|-----------------------------------------------------------------|
Gb|---------------------------------10--10--1010101010--10--10101010|
Db|-7---7---7-7-7-7-7---7---7-7-7-7-10--10--1010101010--10--10101010|
Ab|-7---7---7-7-7-7-7---7---7-7-7-7-8---8---8-8-8-8-8---8---8-8-8-8-|
Eb|-5---5---5-5-5-5-5---5---5-5-5-5---------------------------------|

eb|-----------------------------------------------------------------|
Bb|-----------------------------------------------------------------| x2
Gb|---------------------------------12--12--1212121212--12--12121212|
Db|-10--10--1010101010--10--1010101012--12--1212121212--12--12121212|
Ab|-10--10--1010101010--10--1010101010--10--1010101010--10--10101010|
Eb|-8---8---8-8-8-8-8---8---8-8-8-8---------------------------------|
 

[Pre-chorus]

        Guitar 1
eb|-----------------------------------------------------------------|
Bb|-----------------------------------------------------------------|
Gb|-10---10---10--10---10---10--------------------------------------|
Db|-10---10---10--10---10---10--5----5----5---5-5-5---6-6-6---------|
Ab|-8----8----8---8----8----8---5----5----5---5-5-5---6-6-6---------|
Eb|-----------------------------3----3----3---3-3-3---4-4-4---------|

        Guitar 2
eb|-----------------------------------------------------------------|
Bb|-----------------------------------------------------------------|
Gb|-10---10---10--10---10---10--------------------------------------|
Db|-10---10---10--10---10---10--5----5----5---5-3---3--5--5---------|
Ab|-8----8----8---8----8----8---5----5----5---5-3---3--5--5---------|
Eb|-----------------------------3----3----3---3-1---1--3--3---------|


[Chorus]

        Guitar 1
eb|-----------------------------------------------------------------|
Bb|-----------------------------------------------------------------|
Gb|-----------------12--12--1212121210--10--1010101010-9--10-12-(12)|
Db|-7---7---7-7-7-7-12--12--1212121210--10--10101010x--x--x--x--(x-)|
Ab|-7---7---7-7-7-7-10--10--101010108---8---8-8-8-8-8--7--8--10-(10)|
Eb|-5---5---5-5-5-5-------------------------------------------------|

        Guitar 2
eb|-----------------------------------------------------------------|
Bb|-----------------------------------------------------------------|
Gb|-----------------12--12--1212121210--10--1010101010--10--10101010|
Db|-7---7---7-7-7-7-12--12--1212121210--10--1010101010--10--10101010|
Ab|-7---7---7-7-7-7-10--10--101010108---8---8-8-8-8-8---8---8-8-8-8-|
Eb|-5---5---5-5-5-5-------------------------------------------------|



        Guitar 1
eb|-----------------------------------------------------------------|
Bb|-----------------------------------------------------------------|
Gb|-----------------12--12--1212121210--10--1010101010-9--7--5--(5)-|
Db|-7---7---7-7-7-7-12--12--1212121210--10--10101010x--x--x--x--(x)-|
Ab|-7---7---7-7-7-7-10--10--101010108---8---8-8-8-8-8--7--5--3--(3)-|
Eb|-5---5---5-5-5-5-------------------------------------------------|

        Guitar 2
eb|-----------------------------------------------------------------|
Bb|-----------------------------------------------------------------|
Gb|-----------------12--12--1212121210--10--1010101010--10--10101010|
Db|-7---7---7-7-7-7-12--12--1212121210--10--1010101010--10--10101010|
Ab|-7---7---7-7-7-7-10--10--101010108---8---8-8-8-8-8---8---8-8-8-8-|
Eb|-5---5---5-5-5-5-------------------------------------------------|



        Guitar 1
eb|-----------------------------------------------------------------|
Bb|-----------------------------------------------------------------|
Gb|-----------------12--12--1212121210--10--1010101010-9--10-12-(12)|
Db|-7---7---7-7-7-7-12--12--1212121210--10--10101010x--x--x--x--(x-)|
Ab|-7---7---7-7-7-7-10--10--101010108---8---8-8-8-8-8--7--8--10-(10)|
Eb|-5---5---5-5-5-5-------------------------------------------------|

        Guitar 2
eb|-----------------------------------------------------------------|
Bb|-----------------------------------------------------------------|
Gb|-----------------12--12--1212121210--10--1010101010--10--10101010|
Db|-7---7---7-7-7-7-12--12--1212121210--10--1010101010--10--10101010|
Ab|-7---7---7-7-7-7-10--10--101010108---8---8-8-8-8-8---8---8-8-8-8-|
Eb|-5---5---5-5-5-5-------------------------------------------------|



        Guitar 1 and 2
eb|-----------------------------------------------------------------|
Bb|-----------------------------------------------------------------|
Gb|-----------------12--12--121212121010--9-9-9---7-7-7---5-5-5--(5)|
Db|-7---7---7-7-7-7-12--12--12121212x-x---x-x-x---x-x-x---x-x-x--(x)|
Ab|-7---7---7-7-7-7-10--10--101010108-8---7-7-7---5-5-5---3-3-3--(3)|
Eb|-5---5---5-5-5-5-------------------------------------------------|


[Post-chorus]

        Guitar 1
eb|-----------------------------------------------------------------|
Bb|-----------------------------------------------------------------|
Gb|-----------------------------------------------------------------|
Db|-5---5-5---5-5---5-5-5-5-5---6-----------------------------------|
Ab|-5---5-5---5-5---5-5-5-5-5---6-----------------------------------|
Eb|-3---3-3---3-3---3-3-3-3-3---4-----------------------------------|

        Guitar 2
eb|-----------------------------------------------------------------|
Bb|-----------------------------------------------------------------|
Gb|-----------------------------------------------------------------|
Db|-5---5-5---5-5---5-5-5-5-3---5-----------------------------------|
Ab|-5---5-5---5-5---5-5-5-5-3---5-----------------------------------|
Eb|-3---3-3---3-3---3-3-3-3-1---3-----------------------------------|
 

[Verse 2]

        Guitar 1 and 2
eb|-----------------------------------------------------------------|
Bb|-----------------------------------------------------------------|
Gb|---------------------------------10--10--1010101010--10--10101010|
Db|-7---7---7-7-7-7-7---7---7-7-7-7-10--10--1010101010--10--10101010|
Ab|-7---7---7-7-7-7-7---7---7-7-7-7-8---8---8-8-8-8-8---8---8-8-8-8-|
Eb|-5---5---5-5-5-5-5---5---5-5-5-5---------------------------------|

eb|-----------------------------------------------------------------|
Bb|-----------------------------------------------------------------|
Gb|---------------------------------12--12--1212121212--12--12121212|x2
Db|-10--10--1010101010--10--1010101012--12--1212121212--12--12121212|
Ab|-10--10--1010101010--10--1010101010--10--1010101010--10--10101010|
Eb|-8---8---8-8-8-8-8---8---8-8-8-8---------------------------------|


[Pre-chorus]

        Guitar 1
eb|-----------------------------------------------------------------|
Bb|-----------------------------------------------------------------|
Gb|-10---10---10--10---10---10--------------------------------------|
Db|-10---10---10--10---10---10--5----5----5---5-5-5---6-6-6---------|
Ab|-8----8----8---8----8----8---5----5----5---5-5-5---6-6-6---------|
Eb|-----------------------------3----3----3---3-3-3---4-4-4---------|

        Guitar 2
eb|-----------------------------------------------------------------|
Bb|-----------------------------------------------------------------|
Gb|-10---10---10--10---10---10--------------------------------------|
Db|-10---10---10--10---10---10--5----5----5---5-3---3--5--5---------|
Ab|-8----8----8---8----8----8---5----5----5---5-3---3--5--5---------|
Eb|-----------------------------3----3----3---3-1---1--3--3---------|


[Chorus]

        Guitar 1
eb|-----------------------------------------------------------------|
Bb|-----------------------------------------------------------------|
Gb|-----------------12--12--1212121210--10--1010101010-9--10-12-(12)|
Db|-7---7---7-7-7-7-12--12--1212121210--10--10101010x--x--x--x--(x-)|
Ab|-7---7---7-7-7-7-10--10--101010108---8---8-8-8-8-8--7--8--10-(10)|
Eb|-5---5---5-5-5-5-------------------------------------------------|

        Guitar 2
eb|-----------------------------------------------------------------|
Bb|-----------------------------------------------------------------|
Gb|-----------------12--12--1212121210--10--1010101010--10--10101010|
Db|-7---7---7-7-7-7-12--12--1212121210--10--1010101010--10--10101010|
Ab|-7---7---7-7-7-7-10--10--101010108---8---8-8-8-8-8---8---8-8-8-8-|
Eb|-5---5---5-5-5-5-------------------------------------------------|
 


        Guitar 1
eb|-----------------------------------------------------------------|
Bb|-----------------------------------------------------------------|
Gb|-----------------12--12--1212121210--10--1010101010-9--7--5--(5)-|
Db|-7---7---7-7-7-7-12--12--1212121210--10--10101010x--x--x--x--(x)-|
Ab|-7---7---7-7-7-7-10--10--101010108---8---8-8-8-8-8--7--5--3--(3)-|
Eb|-5---5---5-5-5-5-------------------------------------------------|

        Guitar 2
eb|-----------------------------------------------------------------|
Bb|-----------------------------------------------------------------|
Gb|-----------------12--12--1212121210--10--1010101010--10--10101010|
Db|-7---7---7-7-7-7-12--12--1212121210--10--1010101010--10--10101010|
Ab|-7---7---7-7-7-7-10--10--101010108---8---8-8-8-8-8---8---8-8-8-8-|
Eb|-5---5---5-5-5-5-------------------------------------------------|



        Guitar 1
eb|-----------------------------------------------------------------|
Bb|-----------------------------------------------------------------|
Gb|-----------------12--12--1212121210--10--1010101010-9--10-12-(12)|
Db|-7---7---7-7-7-7-12--12--1212121210--10--10101010x--x--x--x--(x-)|
Ab|-7---7---7-7-7-7-10--10--101010108---8---8-8-8-8-8--7--8--10-(10)|
Eb|-5---5---5-5-5-5-------------------------------------------------|

        Guitar 2
eb|-----------------------------------------------------------------|
Bb|-----------------------------------------------------------------|
Gb|-----------------12--12--1212121210--10--1010101010--10--10101010|
Db|-7---7---7-7-7-7-12--12--1212121210--10--1010101010--10--10101010|
Ab|-7---7---7-7-7-7-10--10--101010108---8---8-8-8-8-8---8---8-8-8-8-|
Eb|-5---5---5-5-5-5-------------------------------------------------|



        Guitar 1 and 2
eb|-----------------------------------------------------------------|
Bb|-----------------------------------------------------------------|
Gb|-----------------12--12--121212121010--9-9-9---7-7-7---5-5-5--(5)|
Db|-7---7---7-7-7-7-12--12--12121212x-x---x-x-x---x-x-x---x-x-x--(x)|
Ab|-7---7---7-7-7-7-10--10--101010108-8---7-7-7---5-5-5---3-3-3--(3)|
Eb|-5---5---5-5-5-5-------------------------------------------------|


 
[Post-chorus]

        Guitar 1
eb|-----------------------------------------------------------------|
Bb|-----------------------------------------------------------------|
Gb|-----------------------------------------------------------------|
Db|-5---5-5---5-5---5-5-5-5-5---6-----------------------------------|
Ab|-5---5-5---5-5---5-5-5-5-5---6-----------------------------------|
Eb|-3---3-3---3-3---3-3-3-3-3---4-----------------------------------|

        Guitar 2
eb|-----------------------------------------------------------------|
Bb|-----------------------------------------------------------------|
Gb|-----------------------------------------------------------------|
Db|-5---5-5---5-5---5-5-5-5-3---5-----------------------------------|
Ab|-5---5-5---5-5---5-5-5-5-3---5-----------------------------------|
Eb|-3---3-3---3-3---3-3-3-3-1---3-----------------------------------|


[Bridge]

        Guitar 1
eb|-----------------------------------------------------------------|
Bb|-----------------------------------------------------------------|
Gb|-------------------------------------------------5-----5---7--(7)|
Db|-7-7-7-7---x-x-x-7-7-7-7---x-x-x-7-7-7-7---x-x-x-5-5---5---7--(7)|
Ab|-7-7-7-7---x-x-x-7-7-7-7---x-x-x-7-7-7-7---x-x-x-3-5---3---5--(5)|
Eb|-5-5-5-5---x-x-x-5-5-5-5---x-x-x-5-5-5-5---x-x-x---3-------------|

        Guitar 2
eb|-----------------------------------------------------------------|
Bb|-----------------------------------------------------------------|
Gb|-------------------------------------------------5-----5---7-----|
Db|-7-7-7-7---------7-7-7-7---------7-7-7-7---------x-5---x---x-----|
Ab|-7-7-7-7---------7-7-7-7---------7-7-7-7---------3-x---3---5-----|
Eb|-5-5-5-5---------5-5-5-5---------5-5-5-5-----------3-------------|



        Guitar 1
eb|-----------------------------------------------------------------|
Bb|-----------------------------------------------------------------|
Gb|-----------------------------------------------------------------|
Db|-7-7-7-7---x-x-x-7-7-7-7---x-x-x-7-7-7-7---x-x-x-5--5--5--7--7--7|
Ab|-7-7-7-7---x-x-x-7-7-7-7---x-x-x-7-7-7-7---x-x-x-3--3--3--5--5--5|
Eb|-5-5-5-5---x-x-x-5-5-5-5---x-x-x-5-5-5-5---x-x-x-----------------|
                                            PM      ∙  ∙  ∙  ∙  ∙  ∙
        Guitar 2
eb|-----------------------------------------------------------------|
Bb|-----------------------------------------------------------------|
Gb|-----------------------------------------------------------------|
Db|-7-7-7-7---------7-7-7-7---------7-7-7-7-------------------------|
Ab|-7-7-7-7---------7-7-7-7---------7-7-7-7-------------------------|
Eb|-5-5-5-5---------5-5-5-5---------5-5-5-5-------------------------|
                                            

                                 
        Guitar 1
eb|-----------------------------------------------------------------|
Bb|-----------------------------------------------------------------|
Gb|-------------------------------------------------5-----5---7--(7)|
Db|-7-7-7-7---x-x-x-7-7-7-7---x-x-x-7-7-7-7---x-x-x-5-5---5---7--(7)|
Ab|-7-7-7-7---x-x-x-7-7-7-7---x-x-x-7-7-7-7---x-x-x-3-5---3---5--(5)|
Eb|-5-5-5-5---x-x-x-5-5-5-5---x-x-x-5-5-5-5---x-x-x---3-------------|

        Guitar 2
eb|-----------------------------------------------------------------|
Bb|-----------------------------------------------------------------|
Gb|-------------------------------------------------5-----5---7-----|
Db|-7-7-7-7---------7-7-7-7---------7-7-7-7---------x-5---x---x-----|
Ab|-7-7-7-7---------7-7-7-7---------7-7-7-7---------3-x---3---5-----|
Eb|-5-5-5-5---------5-5-5-5---------5-5-5-5-----------3-------------|



        Guitar 1
eb|-----------------------------------------------------------------|
Bb|-----------------------------------------------------------------|
Gb|-----------------------------------------------------------------|
Db|-7-7-7-7---x-x-x-7-7-7-7---x-x-x-7-7-7-7---x-x-x-5--5--5--7--7--7|
Ab|-7-7-7-7---x-x-x-7-7-7-7---x-x-x-7-7-7-7---x-x-x-3--3--3--5--5--5|
Eb|-5-5-5-5---x-x-x-5-5-5-5---x-x-x-5-5-5-5---x-x-x-----------------|
                                            PM      ∙  ∙  ∙  ∙  ∙  ∙
        Guitar 2
eb|-----------------------------------------------------------------|
Bb|-----------------------------------------------------------------|
Gb|-----------------------------------------------------------------|
Db|-7-7-7-7---------7-7-7-7---------7-7-7-7-------------------------|
Ab|-7-7-7-7---------7-7-7-7---------7-7-7-7-------------------------|
Eb|-5-5-5-5---------5-5-5-5---------5-5-5-5-------------------------|


[Verse 3]

        Guitar 1 and 2
eb|-----------------------------------------------------------------|
Bb|-----------------------------------------------------------------|
Gb|-----------------------------------------------------------------|
Db|-7~~~------------------------------------------------------------|
Ab|-7~~~------------------------------------------------------------|
Eb|-5~~~------------------------------------------------------------|

        Guitar 1 pick slide
 
        Guitar 1 and 2
eb|-----------------------------------------------------------------|
Bb|-----------------------------------------------------------------|
Gb|---------------------------------10--10--1010101010--10--10101010|
Db|-7---7---7-7-7-7-7---7---7-7-7-7-10--10--1010101010--10--10101010|
Ab|-7---7---7-7-7-7-7---7---7-7-7-7-8---8---8-8-8-8-8---8---8-8-8-8-|
Eb|-5---5---5-5-5-5-5---5---5-5-5-5---------------------------------|

eb|-----------------------------------------------------------------|
Bb|-----------------------------------------------------------------|
Gb|---------------------------------12--12--1212121212--12--12121212|
Db|-10--10--1010101010--10--1010101012--12--1212121212--12--12121212|
Ab|-10--10--1010101010--10--1010101010--10--1010101010--10--10101010|
Eb|-8---8---8-8-8-8-8---8---8-8-8-8---------------------------------|


[Pre-chorus]

        Guitar 1
eb|-----------------------------------------------------------------|
Bb|-----------------------------------------------------------------|
Gb|-10---10---10--10---10---10--------------------------------------|
Db|-10---10---10--10---10---10--5----5----5---5-5-5---6-6-6---------|
Ab|-8----8----8---8----8----8---5----5----5---5-5-5---6-6-6---------|
Eb|-----------------------------3----3----3---3-3-3---4-4-4---------|

        Guitar 2
eb|-----------------------------------------------------------------|
Bb|-----------------------------------------------------------------|
Gb|-10---10---10--10---10---10--------------------------------------|
Db|-10---10---10--10---10---10--5----5----5---5-3---3---5-5---------|
Ab|-8----8----8---8----8----8---5----5----5---5-3---3---5-5---------|
Eb|-----------------------------3----3----3---3-1---1---3-3---------|


[Chorus]

        Guitar 1
eb|-----------------------------------------------------------------|
Bb|-----------------------------------------------------------------|
Gb|-----------------12--12--1212121210--10--1010101010-9--10-12-(12)|
Db|-7---7---7-7-7-7-12--12--1212121210--10--10101010x--x--x--x--(x-)|
Ab|-7---7---7-7-7-7-10--10--101010108---8---8-8-8-8-8--7--8--10-(10)|
Eb|-5---5---5-5-5-5-------------------------------------------------|

        Guitar 2
eb|-----------------------------------------------------------------|
Bb|-----------------------------------------------------------------|
Gb|-----------------12--12--1212121210--10--1010101010--10--10101010|
Db|-7---7---7-7-7-7-12--12--1212121210--10--1010101010--10--10101010|
Ab|-7---7---7-7-7-7-10--10--101010108---8---8-8-8-8-8---8---8-8-8-8-|
Eb|-5---5---5-5-5-5-------------------------------------------------|
 


        Guitar 1
eb|-----------------------------------------------------------------|
Bb|-----------------------------------------------------------------|
Gb|-----------------12--12--1212121210--10--1010101010-9--7--5--(5)-|
Db|-7---7---7-7-7-7-12--12--1212121210--10--10101010x--x--x--x--(x)-|
Ab|-7---7---7-7-7-7-10--10--101010108---8---8-8-8-8-8--7--5--3--(3)-|
Eb|-5---5---5-5-5-5-------------------------------------------------|

        Guitar 2
eb|-----------------------------------------------------------------|
Bb|-----------------------------------------------------------------|
Gb|-----------------12--12--1212121210--10--1010101010--10--10101010|
Db|-7---7---7-7-7-7-12--12--1212121210--10--1010101010--10--10101010|
Ab|-7---7---7-7-7-7-10--10--101010108---8---8-8-8-8-8---8---8-8-8-8-|
Eb|-5---5---5-5-5-5-------------------------------------------------|



        Guitar 1
eb|-----------------------------------------------------------------|
Bb|-----------------------------------------------------------------|
Gb|-----------------12--12--1212121210--10--1010101010-9--10-12-(12)|
Db|-7---7---7-7-7-7-12--12--1212121210--10--10101010x--x--x--x--(x-)|
Ab|-7---7---7-7-7-7-10--10--101010108---8---8-8-8-8-8--7--8--10-(10)|
Eb|-5---5---5-5-5-5-------------------------------------------------|

        Guitar 2
eb|-----------------------------------------------------------------|
Bb|-----------------------------------------------------------------|
Gb|-----------------12--12--1212121210--10--1010101010--10--10101010|
Db|-7---7---7-7-7-7-12--12--1212121210--10--1010101010--10--10101010|
Ab|-7---7---7-7-7-7-10--10--101010108---8---8-8-8-8-8---8---8-8-8-8-|
Eb|-5---5---5-5-5-5-------------------------------------------------|



        Guitar 1 and 2
eb|-----------------------------------------------------------------|
Bb|-----------------------------------------------------------------|
Gb|-----------------12--12--121212121010--9-9-9---7-7-7---5-5-5--(5)|
Db|-7---7---7-7-7-7-12--12--12121212x-x---x-x-x---x-x-x---x-x-x--(x)|
Ab|-7---7---7-7-7-7-10--10--101010108-8---7-7-7---5-5-5---3-3-3--(3)|
Eb|-5---5---5-5-5-5-------------------------------------------------|

 
[Post-chorus]

        Guitar 1
eb|-----------------------------------------------------------------|
Bb|-----------------------------------------------------------------|
Gb|-----------------------------------------------------------------|
Db|-5---5-5---5-5---5-5-5-5-5---6-----------------------------------|
Ab|-5---5-5---5-5---5-5-5-5-5---6-----------------------------------|
Eb|-3---3-3---3-3---3-3-3-3-3---4-----------------------------------|

        Guitar 2
eb|-----------------------------------------------------------------|
Bb|-----------------------------------------------------------------|
Gb|-----------------------------------------------------------------|
Db|-5---5-5---5-5---5-5-5-5-3---5-----------------------------------|
Ab|-5---5-5---5-5---5-5-5-5-3---5-----------------------------------|
Eb|-3---3-3---3-3---3-3-3-3-1---3-----------------------------------|


[End on]

eb|-----------------------------------------------------------------|
Bb|-----------------------------------------------------------------|
Gb|-----------------------------------------------------------------|
Db|-7~--------------------------------------------------------------|
Ab|-7~--------------------------------------------------------------|
Eb|-5~--------------------------------------------------------------|


***********************************
| ~     -  Let ring  |
| PM ∙  -  Palm mute |
| (#)   -  Ghost note|
| x     -  Dead note |
***********************************

            
            
Suggest correction
Creating personal tab
Creating personal tab
You can edit any tab online and save it as your Personal.

You can edit, replace or remove any tab part or add personal notes – all changes will be seen only by you.

Personal tabs can be accessed anytime from any device, even offline.
Learn more »
Give kudos to tab author, rate the tab!
1 2 3 4 5
comments
print report bad tab
guest
You may want to rate the tab now too:
select rating
Wanna post a correction for this tab? Suggest correction