Oops, an error
Loading. Please wait.

Bricks Bass Tab

version 2
version 2

Whole song

Interactive

2,550 views 3 this week
no commentswrite comment
1 2 3 4 5
x 3
add to favorites
launch autoscroll
font size
0
reset
guitar tuner
Autoscroll
slow
fast
+/-
esc
set tempo
stop
Help us to improve Ultimate-Guitar.com Take our survey!
×
----------------------------------------------------------------------------
                           Bricks-Rise Against
----------------------------------------------------------------------------
Album:The Sufferer & The Witness
Tuning:Standard

Tabbed by:WARNINGnimrod12
Email:WARNINGnimrod182@aim.com



  INTRO(no bass)

  VERSE
  
   G|---------------------------------------------------------------------|
   D|---------------------------4-4-4-4-----------------------------------|
   A|---4-4-4-4-4-4-4-4-2-2-2-2---------4-4-4-4-4-4-4-4-2-2-2-2-----------|
   E|-----------------------------------------------------------2-2-2-2---|


   G|---------------------------------------------------------------------|
   D|---------------------------4-4-4-4-----------------------------------|
   A|---4-4-4-4-4-4-4-4-2-2-2-2---------4-4-4-4-4-4-4-4-2-2-2-2-----------|
   E|-----------------------------------------------------------2-2-2-2---|

  CHORUS

   G|-------------------------------------------------|
   D|--------------2--2-2-2-2-------------------------|
   A|---0--0-0-0-0------------4--4-4-4-4-4--4-4-4-4---| x2
   E|-------------------------------------------------|


   G|---------------------------------------------------------------|
   D|----------2--2-2--------4--4-4--------2--2-2-------------------|
   A|---0--0-0--------2--2-2--------0--0-0--------4-4-4-4-4-4-4-2---|
   E|---------------------------------------------------------------|


  VERSE 2

  CHORUS 2

   G|-------------------------------------------------|
   D|--------------2--2-2-2-2-------------------------|
   A|---0--0-0-0-0------------4--4-4-4-4-4--4-4-4-4---|
   E|-------------------------------------------------|


   G|-------------------------------------------------|
   D|--------------2--2-4-2-2-------------------------|
   A|---0--0-2-0-0------------4--4-4-4-4-4--4-4-4-4---|
   E|-------------------------------------------------|


   G|--------------------------------------------------|
   D|----------2--2-2--------4--4-4--------2--2-2------|
   A|---0--0-0--------2--2-2--------0--0-0--------4~---|
   E|--------------------------------------------------|


  BRIDGE

   G|----------------------------------|
   D|-----------2-2-2-2-------4--4-4---|
   A|---4-4-4-4---------2-2-2----------| x5
   E|----------------------------------|


   G|------------------------------|
   D|-----------2-2-2-2------------|
   A|---4-4-4-4---------2----------|
   E|------------------------2-4---|


  CHORUS 3

   G|-------------------------------------------------|
   D|--------------2--2-2-2-2-------------------------|
   A|---0--0-0-0-0------------4--4-4-4-4-4--4-4-4-4---| x2
   E|-------------------------------------------------|


   G|-----------------------------------------------|
   D|----------2--2-2--------4--4-4--------2--2-2---|
   A|---0--0-0--------2--2-2--------0--0-0----------|
   E|-----------------------------------------------|


   G|---------------------------6--6-6-6-4-6/---|
   D|------------4--6--6-6-6-4------------------|
   A|---4--4-4-4--------------------------------|
   E|-------------------------------------------|



   ORDER:
  
   INTRO
   VERSE
   CHORUS
   VERSE 2
   CHORUS 2
   BRIDGE
   CHORUS 3
Suggest correction
Give kudos to tab author, rate the tab!
1 2 3 4 5
comments
print report bad tab
guest
You may want to rate the tab now too:
select rating
Wanna post a correction for this tab? Suggest correction