Oops, an error
Loading. Please wait.

Broken English bass

version 3
version 3

Whole song

Interactive

441 views 1 this week
no commentswrite comment
1 2 3 4 5
1 last vote to show rating
add to favorites
×
Save as Personal and add changes to this tab that will be seen only by you. Learn more ›
×
You can save this tab as Personal to edit and correct it or add notes. All changes will be seen only by you. Learn more »
launch autoscroll
font size
0
reset
guitar tuner
edit
Autoscroll
slow
fast
+/-
esc
set tempo
stop
-----------------------------------------------------------------------------
                        BROKEN ENGLISH - Rise Against
-----------------------------------------------------------------------------
Tabbed by: Peedunkey
E-mail: bubbin.rose@gmail.com

Tuning: Half Step Down

The other tabs for this song have standard tuning, that's wrong, it goes to low Eb a 
frequently so it has to be a half step down.

Listen for the rhythm, I tried to tab it out but the rhythm's not perfect. I'm pretty 
sure everything else is all correct, though.


Intro (0:05)

Gb|----------------------------------------------------------|
Db|----------------------------------------------------------|
Ab|-----------------------------2-2-2---2-2-2-2-2-2---2-2-2--|
Eb|-0-0-0---0-0-0-0-0-0---0-0-0------------------------------|

Gb|----------------------------------------------------------|
Db|----------------------------------------------------------|
Ab|-4-4-4---4-4-4-4-4-4---4-4-4-0-0-0---0-0-0-0-0-0---0-0-0--|   x 4
Eb|----------------------------------------------------------|



Gb|----------------------------------------------------------|
Db|----------------------------------------------------------|
Ab|-----------------------------2-2-2---2-2-2-2-2-2---2-2-2--|
Eb|-0-0-0---0-0-0-0-0-0---0-0-0------------------------------|


Verse 1

Gb|----------------------------------------------------------|
Db|----------------------------------------------------------|
Ab|-4-4-4---4-4-4-4-4-4---4-4-4-0-0-0---0-0-0-0-0-----7-6----|
Eb|----------------------------------------------------------|

Gb|----------------------------------------------------------|
Db|----------------------------------------------------------|
Ab|-----------------------------2-2-2---2-2-2-2-2-2---2-2-2--|   x 2
Eb|-0-0-0---0-0-0-0-0-0---0-0-0------------------------------|


Prechorus

Gb|------------------------|
Db|------------------------|
Ab|-0-0-0-0-0-0-0-0-0-0-2--|
Eb|------------------------|


Chorus

Gb|----------------------------------------------------------|
Db|----------------------------------------------------------|
Ab|-4-4-4-7---7-7--------------------------------------------|
Eb|---------------4---4-4-7---7-7-5---5-5-5-5-2---2-2-2-2-2--|

Gb|----------------------------------------------------------|
Db|----------------------------------------------------------|
Ab|-4-4-4-7---7-7--------------------------------------------|
Eb|---------------4---4-4-7---7-7-5---5-5-5-5-7---7-7-7-7-7--|

Gb|----------------------------------------------------------|
Db|----------------------------------------------------------|
Ab|-4-4-4-7---7-7--------------------------------------------|
Eb|---------------4---4-4-7---7-7-5---5-5-5-5-2---2-2-2-2-2--|

Gb|------------------------------------------|
Db|------------------------------------------|
Ab|------------------------------------------|
Eb|-4-4-4-4-4-4---4-4-4-4-4-4---5-5-5-5-5-7--|


Interlude

Gb|----------------------------------------------------------|
Db|----------------------------------------------------------|
Ab|-4------0-------------2---0-2-4---6-7-6---0---6-7-6-------|
Eb|---------------0------------------------------------------|

Gb|----------------|
Db|----------------|
Ab|-----6-7-6---2--|
Eb|-0--------------|


Verse 2

Gb|----------------------------------------------------------|
Db|----------------------------------------------------------|
Ab|-4-4-4---4-4-4-4-4-4---4-4-4-0-0-0---0-0-0-0-0-----7-6----|
Eb|----------------------------------------------------------|

Gb|----------------------------------------------------------|
Db|----------------------------------------------------------|
Ab|----------------------------------------------------------|
Eb|-0-0-0--0-0-3-4-4-4---4-4-5-2-2-2---2-2-2-2-2-2-2-2-2-----|

Gb|----------------------------------------------------------|
Db|----------------------------------------------------------|
Ab|-4-4-4---4-4-4-4-4-4---4-4-4-0-0-0---0-0-0-0-0-----7-6----|
Eb|----------------------------------------------------------|

Gb|----------------------------------------------------------|
Db|----------------------------------------------------------|
Ab|----------------------------------------------------------|
Eb|-0-0-0--0-0-3-4-4-4---4-4-5-2-2-2---2-2-2-2-2-2-2-2-2-----|


Prechorus

Gb|------------------------|
Db|------------------------|
Ab|-0-0-0-0-0-0-0-0-0-0-2--|
Eb|------------------------|


Chorus

Gb|----------------------------------------------------------|
Db|----------------------------------------------------------|
Ab|-4-4-4-7---7-7--------------------------------------------|
Eb|---------------4---4-4-7---7-7-5---5-5-5-5-2---2-2-2-2-2--|

Gb|----------------------------------------------------------|
Db|----------------------------------------------------------|
Ab|-4-4-4-7---7-7--------------------------------------------|
Eb|---------------4---4-4-7---7-7-5---5-5-5-5-7---7-7-7-7-7--|

Gb|----------------------------------------------------------|
Db|----------------------------------------------------------|
Ab|-4-4-4-7---7-7--------------------------------------------|
Eb|---------------4---4-4-7---7-7-5---5-5-5-5-2---2-2-2-2-2--|

Gb|------------------------------------------|
Db|------------------------------------------|
Ab|------------------------------------------|
Eb|-4-4-4-4-4-4---4-4-4-4-4-4---5-5-5-5-5-7--|


Solo

Gb|----------------------------------------------------------|
Db|----------------------------------------------------------|
Ab|-4---4-4-4-4-4---------------0---0-0-0-0-0-0---0-0-0-0-0--|
Eb|---------------0---0-0-0-0-0------------------------------|

Gb|----------------------------------------------------------|
Db|----------------------------------------------------------|
Ab|-4---4-4-4-4-4---------------0---0-0-0-0-0-0---0-0-0-0-0--|
Eb|---------------0---0-0-0-0-0------------------------------|

Gb|----------------------------------------------------------|
Db|----------------------------------------------------------|
Ab|-4---4-4-4-4-4---------------0---0-0-0-0-0----------------|
Eb|---------------0---0-0-0-0-0---------------2---2-2-2-2-2--|

Gb|--------------------------------|
Db|--------------------------------|
Ab|--------------------------------|
Eb|-4---4-4-4-4-4-7---5-5-5-5-5-7--|


Bridge

Gb|----------------------------------------------------------|
Db|----------------------------------------------------------|
Ab|-4---4-4-4-4-4---------------0---0-0-0-0-0-0---0-0-0-0-0--|
Eb|---------------0---0-0-0-0-0------------------------------|

Gb|----------------------------------------------------------|
Db|----------------------------------------------------------|
Ab|-4---4-4-4-4-4---------------0---0-0-0-0-0-0---0-0-0-0-0--|
Eb|---------------0---0-0-0-0-0------------------------------|

Gb|----------------------------------------------------------|
Db|----------------------------------------------------------|
Ab|-4---4-4-4-4-4---------------0---0-0-0-0-0----------------|
Eb|---------------0---0-0-0-0-0---------------2---2-2-2-2-2--|

Gb|--------------------------------|
Db|--------------------------------|
Ab|--------------------------------|
Eb|-4---4-4-4-4-4-7---5-5-5-5-5-7--|


Final Chorus

Gb|----------------------------------------------------------|
Db|----------------------------------------------------------|
Ab|-4-4-4-7---7-7--------------------------------------------|
Eb|---------------4---4-4-7---7-7-5---5-5-5-5-2---2-2-2-2-2--|

Gb|----------------------------------------------------------|
Db|----------------------------------------------------------|
Ab|-4-4-4-7---7-7--------------------------------------------|
Eb|---------------4---4-4-7---7-7-5---5-5-5-5-7---7-7-7-7-7--|

Gb|----------------------------------------------------------|
Db|----------------------------------------------------------|
Ab|-4-4-4-7---7-7--------------------------------------------|
Eb|---------------4---4-4-7---7-7-5---5-5-5-5-2---2-2-2-2-2--|

Gb|----------------------------------------------------------|
Db|----------------------------------------------------------|
Ab|-------------------------------------------0-2-4----------|
Eb|-4-4-4-4-4-4---4-4-4-4-4-7---5-5-5-5-5-7------------------|


Happy Playing :)

            
            
Suggest correction
Creating personal tab
Creating personal tab
You can edit any tab online and save it as your Personal.

You can edit, replace or remove any tab part or add personal notes – all changes will be seen only by you.

Personal tabs can be accessed anytime from any device, even offline.
Learn more »
Give kudos to tab author, rate the tab!
1 2 3 4 5
comments
print report bad tab
guest
You may want to rate the tab now too:
select rating
Wanna post a correction for this tab? Suggest correction